Oops, an error
Loading. Please wait.

Green Light bass

by Lorde
1,678 views 60 this week
no commentswrite comment
1 2 3 4 5
x 3
add to favorites
×
Save as Personal and add changes to this tab that will be seen only by you. Learn more ›
×
You can save this tab as Personal to edit and correct it or add notes. All changes will be seen only by you. Learn more »
launch autoscroll
font size
0
reset
guitar tuner
edit
Autoscroll
slow
fast
+/-
esc
set tempo
stop
About this tab version
Removed dead-note key. X is for itterations. Was this info helpful? Yes No
[Verse] "I do my makeup in somebody else's car"

G|---------------------------------------------------------------------------|
D|---------------------------------------------------------------------------|
A|---------------------------5-----------------------------------------------|
E|-----2----------5----------------------------------------------------------| x4


[Pre-Chorus] "Those great whites, they have big teeth"

G|-----------------------------------------------|---------------------------|
D|-----------------------------------------------|---------------------------|
A|-----7---------------------5-------------------|x2--------7----------------|
E|--------------------------------------2--------|---------------------------|


[Refrain] "But I hear sounds in my mind"

G|---------------------------------------------------------------------------|
D|---------------------------------------------------------------------------|
A|----------------5----------------------------------------------------------|
E|-----3---------------------5-----------------------------------------------| x4


[Chorus] "Cause honey I'll come get my things, but I can't let go"

(try and play the higher notes off-beat like the piano)

G|-------------------------7---7---7---7-------------------------------------|
D|-----5---5---5---5-------------------------7---7---7---7---7---7---7-------|
A|-----------------------5---5---5---5---------------------------------------| x2
E|---3---3---3---3-------------------------5---5---5---5---5---5---5---5-----|

            
            
Suggest correction
Creating personal tab
Creating personal tab
You can edit any tab online and save it as your Personal.

You can edit, replace or remove any tab part or add personal notes – all changes will be seen only by you.

Personal tabs can be accessed anytime from any device, even offline.
Learn more »
Give kudos to tab author, rate the tab!
1 2 3 4 5
comments
print report bad tab
guest
You may want to rate the tab now too:
select rating
Wanna post a correction for this tab? Suggest correction