Oops, an error
Loading. Please wait.

Babez For Breakfast Tab

2,266 views 1 this week
no commentswrite comment
1 2 3 4 5
excellent!
x 4
add to favorites
launch autoscroll
font size
0
reset
how to read this tab
guitar tuner
Autoscroll
slow
fast
+/-
esc
set tempo
stop
Help us to improve Ultimate-Guitar.com Take our survey!
×
Author
Song: Babez For Breakfast
Band: Lordi
Tabbed by: unspeakable.elvis@gmail.com

Legend:
.       palm mute
h       hammer on
p       pull off
/       slide up to note
\       slide down from note
16\12   slide from 16th fret to 12th fret
7b9     bend 7th fret major second up
9r7     release previous bend
x       dead note
~       vibrato
A.H.    Artificial (pinch) harmonic


Standard tuning.

I checked some live videos for the correct positions etc. Amen likes his double-stops; 
use alternate picking for the fast palm mutes.

Thanks for ratings; if you rate kindly comment too!


Intro
~~~~~

|---------------------------------|---------------------------------|
|---------------------------------|---------------------------------|
|-----2-----4-----5-----4---------|-----2-----4---------------------|
|-----2-----4-----5-----4---------|-----2-----4-----5p4p2p0---------|
|-0-0---0-0---0-0---0-0---0-0-0-0-|-0-0---0-0---0-0---------3p0-5~~-|
|---------------------------------|---------------------------------|
  . .   . .   . .   . .   . . . .   . .   . .   . .             A.H.


|---------------------------------|---------------------------------|
|---------------------------------|---------------------------------|
|-----2-----4-----5-----4---------|-----2-----4---------------------|
|-----2-----4-----5-----4---------|-----2-----4-----5p4p2p0---------|
|-0-0---0-0---0-0---0-0---0-0-0-0-|-0-0---0-0---0-0---------3p0-5---|
|---------------------------------|-----------------------------3---|
  . .   . .   . .   . .   . . . .   . .   . .   . .


             |---------------------------------|
             |-12b14--12b14--12b14--12b14r12---|
             |---------------------------------| Lead guitar fades in
             |---------------------------------| with this, repeat for
             |---------------------------------| rest of intro.
             |---------------------------------|
               A.H.   A.H.   A.H.   A.H.


|---------------------------------|---------------------------------|
|---------------------------------|---------------------------------|
|-----2-----4-----5-----4---------|-----2-----4---------------------|
|-----2-----4-----5-----4---------|-----2-----4-----5p4p2p0---------|
|-0-0---0-0---0-0---0-0---0-0-0-0-|-0-0---0-0---0-0---------3p0-5~~-|
|---------------------------------|---------------------------------|
  . .   . .   . .   . .   . . . .   . .   . .   . .


|---------------------------------|---------------------------------|
|---------------------------------|---------------------------------|
|-----2-----4-----5-----4---------|-----7-----4-----5-----4---------|
|-----2-----4-----5-----4---------|-----7-----4-----5-----4-----5---|
|-0-0---0-0---0-0---0-0---0-0-0-0-|-0-0-------------------------5---|
|---------------------------------|---------------------------------|
  . .   . .   . .   . .   . . . .   . .

Verse
~~~~~
 "this buffet of meat..."       "is all you can eat..."
|---------------------------------|---------------------------------|
|---------------------------------|---------------------------------|
|---------------------------------|---------------------------------|
|---------------------------------|---------------------------------|
|-5-5-5-5-5-5-5-5-5-5-5-5-5-5-5-5-|-3-3-3-3-3-3-3-3-3-3-3-3-3-3-3-3-|
|-3-3-3-3-3-3-3-3-3-3-3-3-3-3-3-3-|-1-1-1-1-1-1-1-1-1-1-1-1-1-1-1-1-|
  . . . . . . . . . . . . . . . .   . . . . . . . . . . . . . . . .


 "they'll never see..."         "disguise..."
|---------------------------------|---------------------------------|
|---------------------------------|---------------------------------|
|---------------------------------|-----2-----4-----5-----4-----2---|
|-7-7-7-7-7-7-7-7-7-7-7-7-7-7-7-7-|-----2-----4-----5-----4-----2---|
|-5-5-5-5-5-5-5-5-5-5-5-5-5-5-5-5-|-0-0---0-0---0-0---0-0---0-0-----|
|---------------------------------|---------------------------------|
  . . . . . . . . . . . . . . . .   . .   . .   . .   . .   . .


 "i'll season them all..."          "special sauce..."
|---------------------------------|---------------------------------|
|---------------------------------|---------------------------------|
|---------------------------------|---------------------------------|
|---------------------------------|---------------------------------|
|-5-5-5-5-5-5-5-5-5-5-5-5-5-5-5-5-|-3-3-3-3-3-3-3-3-3-3-3-3-3-3-3-3-|
|-3-3-3-3-3-3-3-3-3-3-3-3-3-3-3-3-|-1-1-1-1-1-1-1-1-1-1-1-1-1-1-1-1-|
  . . . . . . . . . . . . . . . .   . . . . . . . . . . . . . . . .


 "i'll bang their flesh..."     "tenderize..."
|---------------------------------|---------------------------------|
|---------------------------------|---------------------------------|
|---------------------------------|---------------------------------|
|-7-7-7-7-7-7-7-7-7-7-7-7-7-7-7-7-|-9---9-----------9---9-----------|
|-5-5-5-5-5-5-5-5-5-5-5-5-5-5-5-5-|-7---7-----------7---7-----------|
|---------------------------------|---------------------------------|
  . . . . . . . . . . . . . . . .


                         "bay---"
|---------------------------------|
|---------------------------------|
|---------------------------------|
|-9---9-----------9\--------------|
|-7---7-----------7\--------------|
|---------------------------------|

Chorus
~~~~~~
 "be-e-e-e-e-z!"                                   "babies for..."
|---------------------------------|---------------------------------|
|---------------------------------|---------------------------------|
|---------------------------------|---------------------------------|
|---------------------------------|---------------------------------|
|-7---------------3---------------|-5---------------5---5-5-5-5-5---|
|-5---------------1---------------|-3---------------3---3-3-3-3-3---|
                                                        . . . .

 "breakfast and bitches..."                                "bay---"
|---------------------------------|---------------------------------|
|---------------------------------|---------------------------------|
|---------------------------------|---------------------------------|
|---------------------------------|-----------------5---------------|
|-7---------------3---------------|-5---------------3-------6-------|
|-5---------------1---------------|-3-----------------------4-------|


 "be-e-e-e-e-z!"                                   "babies for..."
|---------------------------------|---------------------------------|
|---------------------------------|---------------------------------|
|---------------------------------|---------------------------------|
|---------------------------------|---------------------------------|
|-7---------------3---------------|-5---------------5---5-5-5-5-5-5-|
|-5---------------1---------------|-3---------------3---3-3-3-3-3-3-|
                                                        . . . . . .


 "breakfast..."      "more sluts for lunch..."
|---------------------------------|---------------------------------|
|---------------------------------|---------------------------------|
|---------------------------------|---------------------------------|
|---------------------------------|-2-2-2-0-0-0---------------------|
|-7---------------3---------------|-------------3-3-3-2-2-2-6-------|
|-5---------------1---------------|-------------------------4-------|
                                    . . . . . . . . . . . .


Post-Chorus
~~~~~~~~~~~
     "babes for breakfast!"        "bitches for brunch!"
|---------------------------------|---------------------------------|
|---------------------------------|---------------------------------|
|-----5---------------------------|---------------------------------|
|-----5-----7-----7-----5---------|-5-----7-----5-------------------|
|-----------7-----5-----3---------|-5-----7-----3---7---------------|
|---------------------------------|-----------------5---------------|


     "babes for breakfast!"        "bitches fo-o-o-or brunch!"
|---------------------------------|---------------------------------|
|---------------------------------|---------------------------------|
|-----5---------------------------|---------------------------------|
|-----5-----7-----7-----5---------|-5-----7-----5-------------------|
|-----------7-----5-----3---------|-5-----7-----3-------7-----------|
|---------------------------------|---------------------5-----------|

Part of Intro again:
~~~~~~~~~~~~~~~~~~~

|---------------------------------|---------------------------------|
|---------------------------------|---------------------------------|
|-----2-----4-----5-----4---------|-----2-----4---------------------|
|-----2-----4-----5-----4---------|-----2-----4-----5p4p2p0---------|
|-0-0---0-0---0-0---0-0---0-0-0-0-|-0-0---0-0---0-0---------3p0-5~~-|
|---------------------------------|---------------------------------|
  . .   . .   . .   . .   . . . .   . .   . .   . .             A.H


|---------------------------------|---------------------------------|
|---------------------------------|---------------------------------|
|-----2-----4-----5-----4---------|-----7-----4-----5-----4---------|
|-----2-----4-----5-----4---------|-----7-----4-----5-----4-----5---|
|-0-0---0-0---0-0---0-0---0-0-0-0-|-0-0-------------------------5---|
|---------------------------------|---------------------------------|
  . .   . .   . .   . .   . . . .   . .


Then back to Verse, Chorus, Post-Chorus x2, after which:
             ~~~~~  ~~~~~~  ~~~~~~~~~~~

Pre-Solo
~~~~~~~~
 "never caught off guard..."       "never let them..."
|---------------------------------|---------------------------------|
|---------------------------------|---------------------------------|
|---------------------------------|---------------------------------|
|---------------------------------|---------------------------------|
|-2-2-2-2-2-2-2-2-2-2-2-2-2-2-2-2-|-2-2-2-2-2-2-2-2-0-0-0-0-----4---|
|---------------------------------|-------------------------3-3-2---|
  . . . . . . . . . . . . . . . .   . . . . . . . . . . . . . .


 "at a-a-a-a-all..."
|---------------------------------|---------------------------------|
|---------------------------------|---------------------------------|
|-------0-------------0-----------|-0-------------------0-----------|
|-------0-----2-------0---2-------|-0---2-------2-------0---2-------|
|-2-----------2-----------2-------|-----2-------2-----------2-------|
|-0-------------------------------|---------------------------------|


 "i keep it up..."                 "the icon must never ever..."
|---------------------------------|---------------------------------|
|---------------------------------|---------------------------------|
|---------------------------------|---------------------------------|
|---------------------------------|---------------------------------|
|-2-2-2-2-2-2-2-2-2-2-2-2-2-2-2-2-|-0-0-0-0-0-0-0-0-----------------|
|---------------------------------|-----------------3-3-3-3-2-2-2-2-|
  . . . . . . . . . . . . . . . .   . . . . . . . . . . . . . . . .


 "fa-a-a-a-all..."
|---------------------------------|---------------------------------|
|---------------------------------|---------------------------------|
|---------------------------------|------(bass + drum fill)---------|
|---------------------------------|---------------------------------|
|-2-------------------------------|---------------------------------|
|-0-------------------------------|---------------------------------|

Solo (rhythm guitar plays Verse)
~~~~                      ~~~~~

|---------------------------------|-12----12------------------------|
|-12----12----13--15----13----15--|-------------15--13--------------|
|---------------------------------|---------------------------------| Lead 2
|---------------------------------|---------------------------------| (harmony)
|---------------------------------|---------------------------------|
|---------------------------------|---------------------------------|
|                                 |                                 |
|                                 |                                 |
|---------------------------------|---------------------------------|
|-------------10--12----10----12--|-13----13----12--10--------------|
|-12----12------------------------|---------------------------------| Lead 1
|---------------------------------|---------------------------------|
|---------------------------------|---------------------------------|
|---------------------------------|---------------------------------|

|-12--------------12--------------|-12------------------------------|
|-------15----13--------15---13---|-------15----13------------------|
|---------------------------------|-----------------14--------------| Lead 2
|---------------------------------|---------------------------------| (harmony)
|---------------------------------|---------------------------------|
|---------------------------------|---------------------------------|
|                                 |                                 |
|                                 |                                 |
|---------------------------------|---------------------------------|
|-13----12----10--13----12---10---|-13----12----10------------------|
|---------------------------------|-----------------9---------------| Lead 1
|---------------------------------|---------------------------------|
|---------------------------------|---------------------------------|
|---------------------------------|---------------------------------|

|---------------------------------|-12----12------------------------|
|-12----12----13--15----13----15--|-------------15--13--------------|
|---------------------------------|---------------------------------| Lead 2
|---------------------------------|---------------------------------| (harmony)
|---------------------------------|---------------------------------|
|---------------------------------|---------------------------------|
|                                 |                                 |
|                                 |                                 |
|---------------------------------|---------------------------------|
|-------------10--12----10----12--|-13----13----12--10--------------|
|-12----12------------------------|---------------------------------| Lead 1
|---------------------------------|---------------------------------|
|---------------------------------|---------------------------------|
|---------------------------------|---------------------------------|

|-12--------------15--------------|---------------------------------|
|-------15----13--------17----15--|-17~~~-----------17~~~-----------|
|---------------------------------|---------------------------------| Lead 2
|---------------------------------|---------------------------------| (harmony)
|---------------------------------|---------------------------------|
|---------------------------------|---------------------------------|
|                                 |                                 |
|                                 |                                 |
|-----------------10--------------|---------------------------------|
|-13----12----10--------13----10--|-12~~~-----------9~~~------------|
|---------------------------------|---------------------------------| Lead 1
|---------------------------------|---------------------------------|
|---------------------------------|---------------------------------|
|---------------------------------|---------------------------------|

|-16~~~-----------16\-------------|
|---------------------------------|
|---------------------------------| Lead 2
|---------------------------------| (harmony)
|---------------------------------|
|---------------------------------|
|                                 |
|                                 |
|---------------------------------|
|---------------------------------|
|-9~~~----------------------------| Lead 1
|-----------------9\--------------|
|---------------------------------|
|---------------------------------|


Back to Chorus, Post-Chorus x2, after which
        ~~~~~~  ~~~~~~~~~~~

Repeat Intro (amid chanting of "babes for breakfast")
with this variation in the last few bars:


             |-------15-------15-------15-------15-------15-----------|
 Lead comes  |-15b17----15b17----15b17----15b17----15b17----15b17r15--|
 in with this|--------------------------------------------------------|
             |--------------------------------------------------------|
             |--------------------------------------------------------|
             |--------------------------------------------------------|

|-----15------15------15----------|-15b17-15b17-15b17-15b17\--------|
|15b17---15b17---15b17---15b17r15-|---------------------------------|
|---------------------------------|---------------------------------| Lead
|---------------------------------|---------------------------------|
|---------------------------------|---------------------------------|
|---------------------------------|---------------------------------|
|                                 |                                 |
|"babes for breakfast..."       "and more sluts for lunch!"         |
|---------------------------------|---------------------------------|
|---------------------------------|---------------------------------|
|-----2-----4-----5-----4---------|---------------------------------| Rhythm
|-----2-----4-----5-----4---------|-5-----7-----5-------------------|
|-0-0---0-0---0-0---0-0---0-0-0-0-|-5-----7-----3---7\--------------|
|---------------------------------|-----------------5\--------------|
  . .   . .   . .   . .   . . . .


End!
Suggest correction
comments
print report bad tab
guest
You may want to rate the tab now too:
select rating
Please do not post tabs as comments. Select "correction" instead!