Oops, an error
Loading. Please wait.

Beast Loose In Paradise Bass Tab

version 1
version 1

Whole song

Interactive

538 views 1 this week
no commentswrite comment
1 2 3 4 5
excellent!
x 4
add to favorites
launch autoscroll
font size
0
reset
guitar tuner
Tab Pro tools
  • play this tab
  • loop segment
  • change instrument
  • show fretboard
  • metronome
Autoscroll
slow
fast
+/-
esc
set tempo
stop
Contributor
Difficulty
novice
----------------------------------------------------------------------------
                             Beast Loose In Paradise - Lordi
----------------------------------------------------------------------------
Tabbed by: Andu Needle
E-mail: sulfur_in_my_lungs@yahoo.com

The bass comes in on the first verse and it goes like this til the pre-chorus:

G|------------------------------------------------------|
D|------------------------------------------------------|
A|------------------------------------------------------|
E|-12/-00-000-000-000-----------------------------------|

You play those three 0s til the pre-chorus!

Pre-chorus:

G|------------------------------------------------------|
D|------------------------------------------------------|
A|------------------------------------------------------|
E|-5~--3-5-7~--5-7-8~--7-8-10~-12121212-----------------|(x2)

Those are 12s, not 1 and 2!

Chorus:

G|------------------------------------------------------|
D|------------------------------------------------------|
A|-----------------------33-----------------------------|
E|-55-1111-33-1111-33-55----33--------------------------|(x2)

Post chorus:

G|------------------------------------------------------|
D|-----------------------------------2---2-4-5----------|
A|-000000-32-00-32-00-23-000000-32-3---3----------------|
E|------------------------------------------------------|

Verse again, the same as the first!
Pre-chorus 2 the same as the first!

Chorus 2:

G|------------------------------------------------------|
D|------------------------------------------------------|
A|-----------------------33-----------------------------|
E|-55-1111-33-1111-33-55----33--------------------------|

G|------------------------------------------------------|
D|------------------------------------------------------|
A|-----------------------33---6-------------------------|
E|-55-1111-33-1111-33-55----4---4-6-77------------------|

Post-chorus 2:

G|------------------------------------------------------|
D|-----------------------------------2---2-4-5----------|
A|---------------------------------3---3----------------|
E|-000000-32-00-32-00-23-000000-32----------------------|

Bridge:

G|------------------------------------------------------|
D|------------------------------------------------------|
A|-1-3-1-------1-3-1/7-6-5-4-3--1-3-1-------------------|
E|-------0-1~-------------------------3-0-00000000(x2)--|

In the last chorus the bass comes in an this part:

G|------------------------------------------------------|
D|------------------------------------------------------|
A|--------33--------------------------------------------|
E|--33-55----33-----------------------------------------|

G|------------------------------------------------------|
D|------------------------------------------------------|
A|-----------------------33---6-------------------------|
E|-55-1111-33-1111-33-55----4---4-6-77------------------|

And for the ending:

G|------------------------------------------------------|
D|-----------------------------2---2-4-5~---------------|
A|---------------------------3---3----------------------|
E|-00-000-000-000-000-000-0~----------------------------|

That`s all folks. Enjoy!
comments
print report bad tab
I want to post or [tab]
guest
You may want to rate the tab now too:
select rating
Please do not post tabs as comments. Select "correction" instead!