Oops, an error
Loading. Please wait.

Biomechanic Man Tab

version 1
version 1

Whole song

Interactive

2,258 views 1 this week
no commentswrite comment
1 2 3 4 5
1 last vote to show rating
add to favorites
launch autoscroll
font size
0
reset
how to read this tab
guitar tuner
Autoscroll
slow
fast
+/-
esc
set tempo
stop
Help us to improve Ultimate-Guitar.com Take our survey!
×
Author
Tuning
D G C F A D
Song: Biomechanic Man
Band: Lordi
Tabbed by: unspeakable.elvis@gmail.com

Tuning: D standard (low to high: D G C F A D)

Legend:

.       palm mute
h       hammer on
p       pull off
/       slide up to note
\       slide down from note
7b9     bend 7th fret major second up
9r7     release previous bend
x       dead note
~       vibrato
7b9-b9  bend 7th fret up major second, then strike string again while bent


Main Riff (Play x4)
~~~~~~~~~

|-------------------------------------------------|
|-------------------------------------------------|
|-------------------------------------------------|
|-------2-----2p0------2--------------------------|
|-2---------------2-1--0--------------------------|
|-0--x------x----------------------0--3h5-5-3h5-5-|



Verse (Play x2)
~~~~~
 "You need some lovin'..."
|-------------------------------------------------|
|-------8-8-8-------8-8-8-------8-8-8-------7h8p7-|
|-------9-9-9-------9-9-9-------9-9-9-------7h9p7-| Guitar
|-------------------------------------------------| 2
|-------------------------------------------------|
|-0---0-------0---0-------0---0-------0---0-------|
| .   .       .   .       .   .       .   .       |
|                                                 |
|-------------------------------------------------|
|-------------------------------------------------|
|-------------------------------------------------| Guitar
|-------2-2-2-------2-2-2-------2-2-2-------0h2p0-| 1
|-2-----------------------------------------------|
|-0---0-------0---0-------0---0-------0---0-------|
  .   .       .   .       .   .       .   .


 "and I'm a device..."
|-------------------------------------------------|
|-------8-8-8-------8-8-8-------------------------|
|-------9-9-9-------9-9-9-------------------------| Guitar
|-------------------------------------0-----------| 2
|-------------------------0---1---2-------2---1---|
|-0---0-------0---0-------------------------------|
| .   .       .   .                               |
|                                                 |
|-------------------------------------------------|
|-------------------------------------------------|
|-------------------------------------------------| Guitar
|-------2-2-2-------2-2-2-------------0-----------| 1
|-2-----------------------0---1---2-------2---1---|
|-0---0-------0---0-------------------------------|
  .   .       .   .



Chorus
~~~~~~
 "I say yeah..."
|-------------------------------------------------|
|-------------------------------------------------|
|-------------------------------------------------| Play
|-------2-----2p0------2--------------------------| x3
|-2---------------2-1--0--------------------------|
|-0--x------x----------------------0--3h5-5-3h5-5-|


 "I           can...      Biomechanic man..."
|-------------------------------------------------|
|-------------------------------------------------|
|-5-----------------------2---2---2---2---2-------|
|-5-----------5-----------0---0---0---2---2-------|
|-3-----------5-----------0---0---0---0---0-------|
|-------------3-----------------------------------|



Back to Verse (x4), then Chorus, Then Verse again (x2), after which:

  "Biomechanic...         Biomechanic..."
|-------------------------------------------------|
|-------------------------------------------------|
|-------------------------------------------------|
|-5---5---5---------------3---3---3---------------|
|-3---3---3---5---5-------1---1---1---3---3---3\2-|
|-------------3---3-------------------1---1---1\0-|
                            

       "Man..."
|-------------------------------------------------|
|-------------------------------------------------|
|-------4-----------------------------------------|
|-------4-----------------------------------------|
|-2--2--2-----------------------------------------|
|-0--0--------------------------------------------|
  .  .
 

Interlude
~~~~~~~~~

|-------------------------------------------------|
|-------------------------------------------------|
|-------------------------------------------------|
|--------------Bass + drums only------------------|
|-------------------------------------------------|
|-------------------------------------------------|


 "For that's who I am, the Biomechanic man..."
|-------------------------------------------------|
|-3-----------------------------------------------|
|-2-----------------------5-----------------------|
|-0-----------------------5-----------------------|
|-------------------------3-----------------------|
|-------------------------------------------------|



Back to Chorus, after which:
 "Biomechanic...           Man..."
|-------------------------------------------------|
|-------------------------------------------------|
|--------------------------4----------------------|
|-3---3---3----------------4----------------------|
|-1---1---1---3---3--------2----------------------|
|-------------1---1-------------------------------|



Solo (for Solo rhythm play: Main Riff (x1), Chorus (x1), Verse (x4) )
~~~~

|-12----12----12----12----12----12----12----------|
|-15b17-15b17-15b17-15b17-15b17-15b17-15b17~~~----|
|-------------------------------------------------| Play
|-------------------------------------------------| x2
|-------------------------------------------------|
|-------------------------------------------------|



|-12-----------------------------------------------------------|
|-b17r15~~---------------15b17r15---------------------15b17r15-|
|---------------------12---------------------12----12----------|
|------------/14---14---------------/14---14----14-------------|
|--------------------------------------------------------------|
|--------------------------------------------------------------|



|------------------------------------12------------------------|
|-------15b17r15----------15b17r15------15-12------------------|
|----12----------------12---------------------15-14-12---------|
|-14-------------14-14---------------------------------14~~~---|
|--------------------------------------------------------------|
|--------------------------------------------------------------|


  "Biomechanic man..."
|--------------------------------------------14----14-15~~-|
|----------------------12~----13-12-13-15~~-----15---------|
|----------------------------------------------------------| Lead
|----------------------------------------------------------| Guitar 2
|----------------------------------------------------------| (very soft)
|----------------------------------------------------------|
|                                                          |
|                                                          |
|-12--------------------------------------------------12~~-|
|----15-12-----------------------------12~~--15-12-15------|
|----------15-14-12~---12~~---14-12-14---------------------| Lead
|----------------------------------------------------------| Guitar 1
|----------------------------------------------------------|
|----------------------------------------------------------|


  "Biomechanic man..."
|-15b17---15b17---15-12-----------------------14----14-15~-|     \
|-----------------------15-12---13-12-13-15------15--------|      |
|----------------------------------------------------------| Lead |
|----------------------------------------------------------| 2    |
|----------------------------------------------------------|      |
|----------------------------------------------------------|      |
|                                                          |       > Play x3
|                                                          |      |
|-12------12------12-----------------------------------12~~|      |
|-15b17---15b17------15-12---------------12~~-15-12-15-----|      |
|--------------------------12~~-14-12-14-------------------| Lead |
|----------------------------------------------------------| 1    |
|----------------------------------------------------------|      |
|----------------------------------------------------------|     /



Finally:
~~~~~~~~
  "Biomechanic...      Man!"
|-15b17------15b17-------b17r15\--------|
|---------------------------------------|
|---------------------------------------| Lead
|---------------------------------------| Guitar 2
|---------------------------------------| (very soft)
|---------------------------------------|
|                                       |
|                                       |
|-12---------12-----------12------------|
|-15b17------15b17--------b17r15\-------|
|---------------------------------------| Lead
|---------------------------------------| Guitar 1
|---------------------------------------|
|---------------------------------------|
|                                       |
|                                       |
|---------------------------------------|
|---------------------------------------|
|---------------------------------------| Rhythm
|-------------2-----------2-------------| Guitar
|-0---1---2-------2---1---2-------------|
|-------------------------0-------------|



End!
Suggest correction
Give kudos to tab author, rate the tab!
1 2 3 4 5
comments
print report bad tab
guest
You may want to rate the tab now too:
select rating
Wanna post a correction for this tab? Suggest correction