Oops, an error
Loading. Please wait.

Bite It Like A Bulldog Tab

version 1
version 1

Whole song

Interactive

4,990 views 1 this week
1 commentread comment
1 2 3 4 5
please rate
add to favorites
launch autoscroll
font size
0
reset
how to read this tab
guitar tuner
Autoscroll
slow
fast
+/-
esc
set tempo
stop
Help us to improve Ultimate-Guitar.com Take our survey!
×
Author
Song: Bite It Like A Bulldog
Band: Lordi
Tabbed by: unspeakable.elvis@gmail.com

Standard tuning


Bass intro:
|-------------------------------------|
|---------------------------------5---|
|---7---------------7-----5h7p5-----7-|
|-0---5-7-3-0---0-----5-7-------7-----|


Guitar fade in  > > > > > > > > >
|---------------------------------|
|---------------------------------|
|---------------------------------|
|---------------------------------|
|-2-2-2-2-2-2-2-2-2-2-2-2-2-2-2-2-|
|-0-0-0-0-0-0-0-0-0-0-0-0-0-0-0-0-|
  . . . . . . . . . . . . . . . . 


Intro riff:  (I imagine two guitars playing it)
|-------------------------------------|
|-------------------------------------|
|-------------------------------------| 
|-2-2-2-4---2---2-----------------5---|
|-2-2-0-2-5-2---2---7-----5h7p5-----7-|
|-0-0-----3-0---0-----5-7-------7-----|
|                                     | 
|-------------------------------------|
|-------------------------------------|
|-------------------------------------|
|---------------------------------5---|
|-2/7-----5-2---2--/7-----5h7p5-----7-|
|-0---5-7-3-0---0-----5-7-------7-----|

Play three times for first intro, then

|-------------------------------------|
|-------------------------------------|
|-------------------------------------|
|-2-2-2-4---2---2---2---2-------------|
|-2-2-0-2-5-2---2---2---2-------------|
|-0-0-----3-0---0---0---0-------------|
|                                     |
|-------------------------------------|
|-------------------------------------|
|-------------------------------------|
|---------------2---2---2-------------|
|-2/7-------2---2---2---2-------------|
|-0---5-7-3-0---0---0---0-------------|



Verse:
 "Caught red handed..."
|---------------------------------|---------------------------------|
|-5---5-----------5---5-----------|-5---5-----------3-3---5---------| Play twice
|-4---4-----------4---4-----------|-5---5-----------2-2---4---------|
|-2---2-----------2---2-----------|-2---2-----------0-0---2---------|
|---------------------------------|---------------------------x---x-|
|-------0---0---0-------0---0---0-|-------0---0---0-----0-----x---x-|
        .   .   .       .   .   .         .   .   .     .

Bridge:
 "always trying to find another..."
|---------------------------------|---------------------------------|
|---------------------------------|-----8-------8-------8-------8---|
|-5--------------7----------------|-----9-------9-------9-------9---|
|-5--------------7----------------|-----9-------9-------9-------9---|
|-3--------------5----------------|---------------------------------|
|---------------------------------|-0-----0-0-----0-0-----0-0-------|
                                    .     . .     . .     . .

|---------------------------------|---------------------------------|
|---------------------------------|-----8-------8-----7---8---------|
|-5--------------7----------------|-----9-------9-----7---9---------|
|-5--------------7----------------|-----9-------9-----7---9---------|
|-3--------------5----------------|---------------------------------|
|---------------------------------|-0-----0-0-------0---------------|
                                    .     . .       .

Chorus
|---------------------------------|---------------------------------|
|---------------------------------|---------------------------------|
|-2-2-----2-2---2---2-------------|-------------------------2-2-----| Play twice
|-2-2-----2-2---2---2-----5-5---3-|---3-----3-3---5---5-----2-2-----|
|-0-0-----0-0---0---0-----5-5---3-|---3-----3-3---5---5-----0-0-----|
|-------------------------3-3---1-|---1-----1-1---3---3-------------|


Play Intro riff x4, Verse, Bridge, Chorus


Middle part:      (Timing is tricky; counts included for your convenience :)

  1 & 2 & 3 & 4 & 1 & 2 & 3 & 4 &   1 & 2 & 3 & 4 & 1 & 2 & 3 & 4 & 
|---------------------------------|---------------------------------|
|---------------------------------|---------------------------------|
|---------------------------------|---------------------------------|
|---7-9---7-9-------7-9---5---5-7-|-7-9-----------5-----------------|
|---5-7---5-7-------5-7---5---5-7-|-5-7---5---7---5---7-------------|
|---5-7---5-7-------5-7-----------|-5-7---5---7-------7-------------|
                   "You leave a trail of dead behind you..."

  1 & 2 & 3 & 4 & 1 & 2 & 3 & 4 &   1 & 2 & 3 & 4 & 1 & 2 & 3 & 4 & 
|---------------------------------|---------------------------------|
|---------------------------------|---------------------------------|
|---------------------------------|---------------------------------|
|---5-7---5-7-------5-7---3---3-5-|-5-7-----------3-----------------|
|---3-5---3-5-------3-5---3---3-5-|-3-5---3---5---3---5-----\-------|
|---3-5---3-5-------3-5-----------|-3-5---3---5-------5-----\-------|
      

  1 & 2 & 3 & 4 & 1 & 2 & 3 & 4 &   1 & 2 & 3 & 4 & 1 & 2 & 3 & 4 & 
|---------------------------------|---------------------------------|
|---------------------------------|---------------------------------|
|---------------------------------|---------------------------------|
|---7-9---7-9-------7-9---5---5-7-|-7-9-----------5-----------------|
|---5-7---5-7-------5-7---5---5-7-|-5-7---5---7---5---7-------------|
|---5-7---5-7-------5-7-----------|-5-7---5---7-------7-------------|


  1 & 2 & 3 & 4 & 1 & 2 & 3 & 4 &   1 & 2 & 3 & 4 & 1 & 2 & 3 & 4 & 
|---------------------------------|---------------------------------|
|---------------------------------|---------------------------------|
|---------------------------------|---------------------------------|
|---5-7---5-7-------5-7---3---3-5-|-5-7-----------3---------3---3-5-|
|---3-5---3-5-------3-5---3---3-5-|-3-5---3---5---3---5-----3---3-5-|
|---3-5---3-5-------3-5-----------|-3-5---3---5-------5-------------|



|---------------------------------|---------------------------------|
|---------------------------------|---------------------------------|
|---------------------------------|---------------------------------|
|-2-------------------------------|----feedback---------------------|
|-2-------------------------------|---------------------------------|
|-0-------------------------------|---------------------------------|



 "Bite it..."  "Bite it..."        "Bite it..."  "Never let it go..."
|---------------------------------|---------------------------------|
|---------------------------------|---------------------------------|
|-2-------------4-----------------|---------------2-----------------|
|-2-------------4-----------------|-5-------------2-----------------|
|-0-------------2-----------------|-5-------------0-----------------|
|---------------------------------|-3-------------------------------|


 Chorus (modulated major second up)
|---------------------------------|---------------------------------|
|---------------------------------|---------------------------------|
|-4-4-----4-4---4---4-----2-2-----|---------------2---2-----4-4-----|
|-4-4-----4-4---4---4-----2-2---5-|---5-----5-5---2---2-----4-4-----|
|-2-2-----2-2---2---2-----0-0---5-|---5-----5-5---0---0-----2-2-----|
|-------------------------------3-|---3-----3-3---------------------|


|---------------------------------|---------------------------------|
|---------------------------------|---------------------------------|
|-4-4-----4-4---4---4-----2-2-----|---------------2---2-------------|
|-4-4-----4-4---4---4-----2-2---5-|---5-----5-5---2---2-----5-------|
|-2-2-----2-2---2---2-----0-0---5-|---5-----5-5---0---0-----5-------|
|-------------------------------3-|---3-----3-3-------------3-------|
                                                            hold

                          "Bite!"
|---------------------------------|
|---------------------------------|
|-------------------------4--\----|
|---------------2-0h2p0---4--\----|
|----------------------0--2--\----|
|---------------------------------|

End.
Suggest correction
What's this?
You can suggest a correction to this tab. Community and Mods will review your correction and vote to approve or reject it.
comments
We did not receive enough feedback on this tab! Please rate:
print report bad tab
1 2 3 4 5
1 comment total.
+1 reply
Lattka23 50 wrote on July 11 2009, 06:43 pm

Great Work, bro!
Thanks a lot!
Could you add a tab legend, thx ;)

guest
You may want to rate the tab now too:
select rating
Please do not post tabs as comments. Select "correction" instead!