Oops, an error
Loading. Please wait.

Bringing Back The Balls To Rock Tab

version 1
version 1

Whole song

Interactive

5,026 views 1 this week
no commentswrite comment
1 2 3 4 5
excellent!
x 4
add to favorites
launch autoscroll
font size
0
reset
how to read this tab
guitar tuner
Autoscroll
slow
fast
+/-
esc
set tempo
stop
Help us to improve Ultimate-Guitar.com Take our survey!
×
Contributor
Difficulty
Tuning
KitaRox 263
intermediate
D A D G B E
Bringin Back The Balls To Rock
The Arockalypse
Lordi
             Tabbed by Stephan Peters; webmaster@stephanpeters.de

Use dropped D Tuning and have fun, it’s pretty easy!

/= slide up
\= slide down
x= mute note
h= hammer on
P.M = Palm Mute

Intro
E|---------------------------------------------------|
B|---------------------------------------------------|
G|---------------------------------------------------|
D|--0000-3-3/5-6-6-5-3-3/5-0000-3-3/5-6-6-5----------|
A|--0000-3-3/5-6-6-5-3-3/5-0000-3-3/5-6-6-5-3/5-3/5--|
D|--0000-3-3/5-6-6-5-3-3/5-0000-3-3/5-6-6-5----------|
    P.M                    P.M


E|-----------------------------------------------------|
B|-------------------------3--2------------------------|
G|-------------------------3--2------------------------|
D|--0000-3-3/5-6-6-5-3-3/5-3--2---(3--2)---------------|
A|--0000-3-3/5-6-6-5-3-3/5-1--0---(3--2)---------------|
D|--0000-3-3/5-6-6-5-3-3/5--------(3--2)---------------|
    P.M

Attention class...
 All P.M and Repeat two times

E|-------------------------------------------------|
B|-------------------------------------------------|
G|-------------------------------------------------|
D|-------------------------------------------------|
A|-------------------------------------------------|
D|-99999999999999999999999999999999-555555555555555

E|---------------------------------------------------|
B|---------------------------------------------------|
G|---------------------------------------------------|
D|---------------------------------------------------|
A|---------------------------------------------------|
D|55555555555555555-7777777777777777-2222222222222222

E|---------------------------------------------------|
B|---------------------------------------------------|
G|---------------------------------------------------|
D|---------------------------------------------------|
A|---------------------------------------------------|
D|-44444444444444444444444444444444------------------|


Bridge
E|--------------------------------------------------------------|
B|--------------------------------------------------------------|
G|--------------------------------------------------------------|
D|-0-xx-0--x0-8-xx-88-x8--5-7-8-x8-10---0-xx-0-0-8-8-10---------|
A|-0-xx-0--x0-8-xx-88-x8--5-7-8-x8-10---0-xx-0-0-8-8-10---------|
D|-0-xx-0--x0-8-xx-88-x8--5-7-8-x8-10---0-xx-0-0-8-8-10--5~6~7~-|

Chorus      After Chorus, Repeat everything, the (10) just by
            playing the 2nd time; last 2 chords in the song are 0
E|---------------------------------------------------------------------|
B|---------------------------------------------------------------------|
G|-5-------------5-------------------5--5-------------5----------------|
D|-5-0-3-0-5-3-0-50-8-8-xx-8-8-5-3-0-50-5-0-3-0-5-3-0-30-8--(10)-10-10-|
A|-3-0-3-0-5-3-0-30-8-8-xx-8-8-5-3-0-30-3-0-3-0-5-3-0-30-8--(10)-10-10-|
D|---0-3-0-5-3-0--0-8-8-xx-8-8-5-3-0--0---0-3-0-5-3-0--0-8--(10)-10-10-|


Bridge 2

E|-------------------------------------------------------------|
B|-------------------------------------------------------------|
G|-------------------------------------------------------------|
D|-3--0----3--0---10-7--------------10-7--------------12--10-7-|
A|-3--0----3--0---10-7--------------10-7--------------12--10-7-|
D|-3--0----3--0---10-77777777777777-10-77777777777777-12--10-7-|
                     {     P.M     }   {   P.M       }

E|-----------------------|
B|-----------------------|
G|-----------------------|
D|------------4-4-4-4-44-|
A|------------4-4-4-4-44-|
D|-7777777777-4-4-4-4-44-|

Solo for one guitar, Repeat two times, then go to Chorus

E|-------------------------------------------------------------|
B|-------------------------------------------------------------|
G|-------------------------------------------------------------|
D|---------------------------------------------2--4-5/7--5-4-2-|
A|-2--4-5/7--5-4-5--4-0--2--4-5/7--5-4-5--4-0------------------|
D|-------------------------------------------------------------|

E|-------------------------------------------------------------|
B|-------------------------------------------------------------|
G|-------------------------------------------------------------|
D|-0-2--4-2----------------------------------------------------|
A|---------5-4-1~----------------------------------------------|
D|-------------------------------------------------------------|
comments
print report bad tab
I want to post or [tab]
guest
You may want to rate the tab now too:
select rating
Please do not post tabs as comments. Select "correction" instead!