Oops, an error
Loading. Please wait.

Devil Is A Loser Tab

version 2
version 2

Whole song

Interactive

31,246 views 24 this week
7 commentsread comments
1 2 3 4 5
excellent!
x 11
add to favorites
launch autoscroll
font size
0
reset
how to read this tab
guitar tuner
Tab Pro tools
  • play this tab
  • loop segment
  • change instrument
  • show fretboard
  • metronome
×
Best way to learn
"Devil Is A Loser"
Autoscroll
slow
fast
+/-
esc
set tempo
stop
Contributor
Difficulty
Tuning
intermediate
D A D G B E
Devil Is A Loser
Get Heavy
Lordi
Tabbed by Stephan Peters; webmaster@stephanpeters.de


Use dropped D Tuning and have fun, it’s pretty easy!

/= slide up
\= slide down
x= mute note
h= hammer on
P.M = Palm Mute
b = bend string up a 1/4 note  (only in this song)
r = release string

Intro
  Play 3 times then continue to part 2
E|-----------------|
B|-----------------|
G|-----------------|
D|-1-1--4-6-6b--6--|
A|-1-1--4-6-6b--6--|
D|-1-1--4-6-6b--6--|

 Part 2   | A.H.|
E|---------------|
B|---------------|
G|---------------|
D|-1-1--4--5-5-5-|
A|-1-1--4--5-5-5-|
D|-1-1--4--------|
                       Repeat all above 3 times
_____________________________________________________________

     All single notes P.M!!
E|-------------------------------------------------------------------|
B|-------------------------------------------------------------------|
G|-5-------------------------5---5-5-------------------------5--5-3--|
D|-5-------------------------5---5-5-------------------------5--5-3--|
A|-3-3-3-3-3-3-3-3-3-3-3-3-3-3-3-3-3-3-3-3-3-3-3-3-3-3-3-3-3-3--3-1--|
D|-------------------------------------------------------------------|

E|-------------------------------------------------------------|
B|-------------------------------------------------------------|
G|---------3--3--------------------------------5----------3--3-|
D|---------3--3-5---------5--5-6-----6-5-----5-5----------3--3-|
A|-1-1-1-1-1--1-5---------5--5-6-----6-5-----5-3-3-3-3-3--1--1-|
D|--------------5-5-5-5-5-5--5-6-6-6-6-5-5-5-5-----------------|


E|-----------------------------------------------------------------|
B|-----------------------------------------------------------------|
G|-5-------------------------5--5-5-------------------------5--5-3-|
D|-5-------------------------5--5-5-------------------------5--5-3-|
A|-3-3-3-3-3-3-3-3-3-3-3-3-3-3--3-3-3-3-3-3-3-3-3-3-3-3-3-3-3--3-1-|
D|-----------------------------------------------------------------|

E|-------------------------------------------------------------|
B|-------------------------------------------------------------|
G|---------3--3--------------------------------5---------------|
D|---------3--3-5---------5--5-6-----6-5-----5-5---------------|
A|-1-1-1-1-1--1-5---------5--5-6-----6-5-----5-3-3-3-3-3-3-3-3-|
D|--------------5-5-5-5-5-5--5-6-6-6-6-5-5-5-5-----------------|


--- All single notes P.M!!    ; After this, play from Intro without
 Via Hell Incorporated…         Repeating! After Chorus go to Fill In
E|---------------------------------------------------------------|
B|---------------------------------------------------------------|
G|-----8---8-8--3-3-------------------6---6-6--------------------|
D|-----8---8-8--3-3-------------------6---6-6--6-6---------------|
A|-6-6-6-6-6-6--1-1-1-1-1-1-1-1-1-4-4-4-4-4-4--6-6---------------|
D|---------------------------------------------6-6-6-6-6-6-6-6-1-|

E|---------------------------------------------|
B|---------------------------------------------|
G|---------------------------------8-8--7-7----|
D|-----9-----9-----4------------4--8-8--7-7--5-|
A|-----9-----9-----4------------4--6-6--5-5--5-|
D|-9-9-9-9-9-9-9-9-4--------4-4-4------------5-|

Chorus                        |         P.M          |
E|-------------------------------------------------------------|
B|-------------------------------------------------------------|
G|-5-5---------3-3--5-5--3-3------------------3-3-3-3----------|
D|-5-5---6-6---3-3--5-5--3-3--6-6-6-6-1-1-1-1-3-3-3-3----1-0---|
A|-3-3---6-6---1-1--3-3--1-1--6-6-6-6-1-1-1-1-1-1-1-1--3-----1-|
D|-------6-6------------------6-6-6-6-1-1-1-1------------------|

                             |       P.M.   |
E|--------------------------------------------------|
B|--------------------------------------------------|
G|-5-5---------3-3--5-5--3-3-------------------3--3-|
D|-5-5---6-6---3-3--5-5--3-3--6-6-6-6-1-1-1-1--3--3-|
A|-3-3---6-6---1-1--3-3--1-1--6-6-6-6-1-1-1-1--1--1-|
D|-------6-6------------------6-6-6-6-1-1-1-1-------|



Fill In
    After fill in, play the Intro and Part 2, then, the last 3 Chords are starting
     After this Fill In  (I hope you understand ^^ )
E|----------------------------------------------------------------------|
B|----------------------------------------------------------------------|
G|----------------------------------------------------------------------|
D|-1-1-1--------6b--6--1--1------6b--6--1--1------6b--6--1--1-----3-3-3-|
A|-1-1-1--------6b--6--1--1------6b--6--1--1------6b--6--1--1-----3-3-3-|
D|-1-1-1--------6b--6--1--1------6b--6--1--1------6b--6--1--1-----------|

  End of the “Intro”
E|-----------|
B|-----------|
G|-5-------3-|
D|-5---6---3-|
A|-3---6---1-|
D|-----6-----|

 Solo
E|--------------------------------------------------------|
B|--------------------------------------------------------|
G|--------------------------------------------------------|
D|-0--3-0---3--------2---3--2--0--3-0---3--------2---3--2-|
A|--------1---1-3--3---3--------------1---1-3--3---3------|
D|--------------------------------------------------------|

E|---------------------------------------------------------|
B|---------------------------------------------------------|
G|---------------------------------------------8-8--7-7----|
D|-1--4-1---4--------3---4--3--1--4-1---4------8-8--7-7--5-|
A|--------2---2-4--4---4--------------2---2-2--6-6--5-5--5-|
D|-------------------------------------------------------5-|
comments
print report bad tab
7 comments total. Showing first comments.
0 reply
The Breakout wrote on June 3 2006, 04:11 pm

shud the H not be B coz i dont even think tahts a note

0 reply
KitaRox wrote on June 3 2006, 05:41 pm

Oh, sorry, I'm from germany, so the "B" is called "H". I'll correct it.

0 reply
@li@s H4nZu wrote on July 20 2006, 04:45 pm

coool Tab.Thx :)

I want to post or [tab]
guest
You may want to rate the tab now too:
select rating
Please do not post tabs as comments. Select "correction" instead!