Oops, an error
Loading. Please wait.

Devil Is A Loser Bass Tab

version 4
version 4

Whole song

Interactive

590 views 1 this week
no commentswrite comment
1 2 3 4 5
please rate
add to favorites
launch autoscroll
font size
0
reset
guitar tuner
Autoscroll
slow
fast
+/-
esc
set tempo
stop
Help us to improve Ultimate-Guitar.com Take our survey!
×
Author
SONG: Devil Is A Loser
BAND: Lordi
TUNING: Drop D (D-A-D-G)
TABBED BY: unspeakable.elvis@gmail.com


Intro
|---------------------------------|---------------------------------|
|---------------------------------|---------------------------------|
|-r-------------------------------|-r-------------------------------|
|---------------------------6\----|----------------------------6\-1-|


|---------------------------------|---------------------------------|
|---------------------------------|---------------------------------|
|---------------------------------|---------------------------------|
|(1)-1--------4---6---6b----6---1-|(1)-1--------4---6---6b----6---1-|

|---------------------------------|---------------------------------|
|---------------------------------|---------------------------------|
|---------------------------------|-------------------r-------------|
|(1)-1--------4---6---6b----6---1-|(1)-1--------4---6---------------|


Verse
|---------------------------------|---------------------------------|
|---------------------------------|---------------------------------|
|-3-3-3-3-3-3-3-3-3-3-3-3-3-3-3-3-|-3-3-3-3-3-3-3-3-3-3-3-3-3-3-3-3-|
|---------------------------------|---------------------------------|

|---------------------------------|---------------------------------|
|---------------------------------|---------------------------------|
|-1-1-1-1-1-1-1-1-----------------|-----------------3-3-3-3-3-1-r-1-|
|-----------------5-5-5-5-5-5-5-5-|-6-6-6-6-5-5-5-5-----------------|


Bridge
|---------------------------------|---------------------------------|
|---------------------------------|---------------------------------|
|-6-6-6-6-6-6-6-6-1-1-1-1-1-1-1-1-|-4-4-4-4-4-4-4-4-----------------|
|---------------------------------|-----------------6-6-6-6-6-6-6-6-|

|---------------------------------|---------------------------------|
|---------------------------------|---------------------------------|
|-2-2-2-2-2-2-2-2-----------------|-6-6-r-6-5-r---------------------|
|-----------------4-4-4-4-4-4-4-4-|-----------------5---------------|


Chorus
|---------------------------------|---------------------------------|
|---------------------------------|---------------------------------|
|-3-r-------1-1---3-3---------1-1-|-----------------1-1-1-1-3-3-1-1-|
|-----6-6-r-----------------------|-6-6-6-6-1-1-1-1-----------------|



Interlude (play Intro)

play x7                                then
||-----------------------------------||---------------------------------|
||o-1-----------4---6---6b-r--6---1-o||(1)-1-r------4---6--r------------|
||o---------------------------------o||---------------------------------|
||-----------------------------------||-------------------------------1-|



play x6                                then   
||-----------------------------------||---------------------------------|
||o---------------------------------o||---------------------------------|
||o---------------------------------o||-3-3-3-3-------------------------|
||-(1)-1--------4---6---6b----6---1--||---------6-6-6-6-8-8-8-8-8-8-8-8-|
                                   "Gene Simmons on your back..."

Solo

|---------------------------------|
|---------------------2---3---2---|
|-5---5-5-1-1-1-3-r-3---3---------| play x2
|---------------------------------|

|---------------------------------|---------------------------------|
|---------------------3---4---3---|---------------------------------|
|-6-6-6-6-2-2-2-4-r-4---4---------|-6-6-6-6-2-2-2-2-6-6-r-6-5-r-----|
|---------------------------------|-----------------------------5~--|

Back to chorus


(1) = ghost note
b = bend
r = rest
Suggest correction
What's this?
You can suggest a correction to this tab. Community and Mods will review your correction and vote to approve or reject it.
comments
We did not receive enough feedback on this tab! Please rate:
print report bad tab
1 2 3 4 5
guest
You may want to rate the tab now too:
select rating
Please do not post tabs as comments. Select "correction" instead!