Oops, an error
Loading. Please wait.

Devil Is A Loser Bass Tab

version 5
version 5

Whole song

Interactive

234 views 1 this week
no commentswrite comment
1 2 3 4 5
please rate
add to favorites
launch autoscroll
font size
0
reset
guitar tuner
Autoscroll
slow
fast
+/-
esc
set tempo
stop
Help us to improve Ultimate-Guitar.com Take our survey!
×
G|---------------------------------------------------|  2x
D|------------------------------------0-2------------|
A|---------------------------------------------------|
E|-0-0-0-0-0-0-0-0-0-0-0-0-0-0-0-0-0-----------------|

G|-----------------------------------|
D|-----------------------------------|
A|-----------------------------------|
E|-0-0-0-0-0-0-0-0-0-0-0-0-0-0-0-0-0-|

G|----|-------|-------|-------------|   2x
D|----|-------|-------|-------------|
A|----|-------|-------|-------------|
E|-5~-|-3-5-7-|-5-7-8-|-7-8-10---12-|

Chorus
G|-----------------------------------------------|  2x
D|-----------------------------------------------|
A|-----------------------------------------3-3---|
E|-5--5--1-1-1---3--3--1-1-1---5--5--1-1-1-----3-|

G|--------------------------------|-----------------------2---2-4-5-|  2x
D|--------------------------------|---------------------3---2-------|
A|-0--0-0-0-0-3-2-----3-2-----2-3-|-0--0-0-0-0-3-2------------------|
E|--------------------------------|---------------------------------|

G|---------------------------------------------------|  3x
D|------------------------------------0-2------------|
A|---------------------------------------------------|
E|-0-0-0-0-0-0-0-0-0-0-0-0-0-0-0-0-0-----------------|

G|-----------------------------------|
D|-----------------------------------|
A|-----------------------------------|
E|-0-0-0-0-0-0-0-0-0-0-0-0-0-0-0-0-0-|

G|----|-------|-------|-------------|   2x
D|----|-------|-------|-------------|
A|----|-------|-------|-------------|
E|-5~-|-3-5-7-|-5-7-8-|-7-8-10---12-|

Chorus
G|-----------------------------------------------|  2x
D|-----------------------------------------------|
A|-----------------------------------------3-3---|
E|-5--5--1-1-1---3--3--1-1-1---5--5--1-1-1-----3-|

G|----------------------------|
D|----------------------------|
A|------6---------------------|
E|-4---------4----6-6-----7-7-|

G|--------------------------------|---------------------------------|  2x
D|--------------------------------|-----------------------2---2-4-5-|
A|--------------------------------|---------------------3---2-------|
E|-0--0-0-0-0-3-2-----3-2-----2-3-|-0--0-0-0-0-3-2------------------|

G|---------------------------|------------------------------------|------------------------------|
D|---------------------------|------------------------------------|------------------------------|
A|-2-----3-----0-----2-------|-2-----3-----0-----7--6--5--4--3--2-|-1-----2------------1---------|
E|-------------------------1-|------------------------------------|-------------4-------------0--|

G|-----------------------------------|---------------------|
D|-----------------------------------|---------------------|
A|-----------------------------------|---------------3-3---|
E|0-0-0-0-0-0-0-0-0-0-0-0-0-0-0-0-5~-|-5---5---1-1-1-----3-|


Chorus
G|-----------------------------------------------|  4x
D|-----------------------------------------------|
A|-----------------------------------------3-3---|
E|-5--5--1-1-1---3--3--1-1-1---5--5--1-1-1-----3-|

G|----------------------------|
D|----------------------------|
A|------6---------------------|
E|-4---------4----6-6-----7-7-|

G|---------------------------|------------------------------|
D|----------------------0-2--|------------------------------|
A|---------------------------|--------------------2---2-4-5-|
E|-0--0-0-0-0-0-0-0-0-0------|-0--0-0-0-0-0-0---3---2-------|
Suggest correction
What's this?
You can suggest a correction to this tab. Community and Mods will review your correction and vote to approve or reject it.
comments
We did not receive enough feedback on this tab! Please rate:
print report bad tab
1 2 3 4 5
guest
You may want to rate the tab now too:
select rating
Please do not post tabs as comments. Select "correction" instead!