Oops, an error
Loading. Please wait.

Get Heavy Tab

version 1
version 1

Whole song

Interactive

6,892 views 9 this week
4 commentsread comments
1 2 3 4 5
x 3
add to favorites
launch autoscroll
font size
0
reset
how to read this tab
guitar tuner
Autoscroll
slow
fast
+/-
esc
set tempo
stop
Help us to improve Ultimate-Guitar.com Take our survey!
×
Author
Difficulty
Tuning
novice
D A D G B E
                                   Get Heavy

Album:Get Heavy
Lordi

Tabbed by Stephan Peters; webmaster@stephanpeters.de


Use dropped D Tuning and have fun! Pretty easy! ;)


/= slide up
\= slide down
x= mute note
h= hammer on
P.M = Palm Mute
b = bend string up
r = release string
~ = don’t stop the chord
* = A.H
0 = P.M. Single Note

Intro: all “0” P.M!                                                            {P.M}
E|-------------------------------------------------------------------|
B|-------------------------------------------------------------------|
G|-3-3-3-0-0-0-0-0-0-3-3-0-0-0-0-0-0-0-6-5---3---5-------------------|
D|-3-3-3-0-0-0-0-0-0-3-3-0-0-0-0-0-0-0-6-5-0-3-0-5-0-1--1--xx3-3-3-3-|
A|---------------------------------------------------1--1--xx3-3-3-3-|
D|-------------------------------------------------------------------|
                                                                {P.M}
E|-------------------------------------------------------------------|
B|-------------------------------------------------------------------|
G|-3-3-3-0-0-0-0-0-0-3-3-0-0-0-0-0-0-0-6-5---3---5-------------------|
D|-3-3-3-0-0-0-0-0-0-3-3-0-0-0-0-0-0-0-6-5-0-3-0-5-0-1--1--xx3-3-3-3-|
A|---------------------------------------------------1--1--xx3-3-3-3-|
D|-------------------------------------------------------------------|

E|----------------------------------------------------------|
B|----------------------------------------------------------|
G|-3-3-3-0-0-0-0-0-0-3-3-0-0-0-0-0-0-0-6-5---3---5----------|
D|-3-3-3-0-0-0-0-0-0-3-3-0-0-0-0-0-0-0-6-5-0-3-0-5-0-1~~~~--|
A|---------------------------------------------------1~~~~1-|
D|---------------------------------------------------1~~~~1-|

Vers                              {    P.M  }
E|------------------------------------------------------------|
B|------------------------------------------------------------|
G|------------------------------------------------------------|
D|-5-5--8-8-10-5-5--8-8-10-5-5--8--8-8-8-8-8-3--3---xx3-2-3-4-|
A|-5-5--8-8-10-5-5--8-8-10-5-5--8--8-8-8-8-8-3--3---xx3-2-3-4-|
D|-5-5--8-8-10-5-5--8-8-10-5-5--8--8-8-8-8-8-3--3---xx3-2-3-4-|

		                  {    P.M  }
E|-------------------------------------------------------------|
B|-------------------------------------------------------------|
G|--------------------------------------------------3-3-3/5-5~-|
D|-5-5--8-8-10-5-5--8-8-10-5-5--8--8-8-8-8-8-3--3---3-3-3/5-5~-|
A|-5-5--8-8-10-5-5--8-8-10-5-5--8--8-8-8-8-8-3--3---1-1-1/3-3~-|
D|-5-5--8-8-10-5-5--8-8-10-5-5--8--8-8-8-8-8-3--3--------------|


E|------------------------------------------------------------------|
B|------------------------------------------------------------------|
G|------------------------3-3/5---3---------------------------------|
D|-5--3-0-3-5--0-3-0-8-5--3-3/5---3---3--3---3--3---1-1-1-1-1-1-1-1-|
A|-5--3-0-3-5--0-3-0-8-5--1-1/3---1---3--3---3--3---1-1-1-1-1-1-1-1-|
D|-5--3-0-3-5--0-3-0-8-5--------------3--3---3--3---1-1-1-1-1-1-1-1-|
                                                      0 0   0 0   0
E|---------------|
B|---------------|
G|---------------|
D|-0~~-----------|
A|-0~~/5-3-5-5-5-|
D|-0~~-----------|

Chorus

E|--------------------------------------------------------|
B|--------------------------------------------------------|
G|------------------------------------------------------3-|
D|-5-5-3-0-3-5--0-3-0-8-5--0-3-1--1-1-0-1-3--0-1-0-1-3--3-|
A|-5-5-3-0-3-5--0-3-0-8-5--0-3-1--1-1-0-1-3--0-1-0-1-3--1-|
D|-5-5-3-0-3-5--0-3-0-8-5--0-3-1--1-1-0-1-3--0-1-0-1-3----|


E|--------------------------------------------------------|
B|--------------------------------------------------------|
G|------------------------------------------------------3-|
D|-5-5-3-0-3-5--0-3-0-8-5--0-3-1--1-1-0-1-3--0-1-0-1-3--3-|
A|-5-5-3-0-3-5--0-3-0-8-5--0-3-1--1-1-0-1-3--0-1-0-1-3--1-|
D|-5-5-3-0-3-5--0-3-0-8-5--0-3-1--1-1-0-1-3--0-1-0-1-3----|

Bridge1

                                                                {P.M}
E|-------------------------------------------------------------------|
B|-------------------------------------------------------------------|
G|-3-3-3-0-0-0-0-0-0-3-3-0-0-0-0-0-0-0-6-5---3---5-------------------|
D|-3-3-3-0-0-0-0-0-0-3-3-0-0-0-0-0-0-0-6-5-0-3-0-5-0-1--1--xx3-3-3-3-|
A|---------------------------------------------------1--1--xx3-3-3-3-|
D|-------------------------------------------------------------------|


E|----------------------------------------------------------|
B|----------------------------------------------------------|
G|-3-3-3-0-0-0-0-0-0-3-3-0-0-0-0-0-0-0-6-5---3---5----------|
D|-3-3-3-0-0-0-0-0-0-3-3-0-0-0-0-0-0-0-6-5-0-3-0-5-0-1~~~~--|
A|---------------------------------------------------1~~~~1-|
D|---------------------------------------------------1~~~~1-|

Verse
				  {    P.M  }
E|------------------------------------------------------------|
B|------------------------------------------------------------|
G|------------------------------------------------------------|
D|-5-5--8-8-10-5-5--8-8-10-5-5--8--8-8-8-8-8-3--3---xx3-2-3-4-|
A|-5-5--8-8-10-5-5--8-8-10-5-5--8--8-8-8-8-8-3--3---xx3-2-3-4-|
D|-5-5--8-8-10-5-5--8-8-10-5-5--8--8-8-8-8-8-3--3---xx3-2-3-4-|

				  {    P.M  }
E|-------------------------------------------------------------|
B|-------------------------------------------------------------|
G|--------------------------------------------------3-3-3/5-5~-|
D|-5-5--8-8-10-5-5--8-8-10-5-5--8--8-8-8-8-8-3--3---3-3-3/5-5~-|
A|-5-5--8-8-10-5-5--8-8-10-5-5--8--8-8-8-8-8-3--3---1-1-1/3-3~-|
D|-5-5--8-8-10-5-5--8-8-10-5-5--8--8-8-8-8-8-3--3--------------|

           							      0
E|------------------------------------------------------------------|
B|------------------------------------------------------------------|
G|------------------------3-3/5---3---------------------------------|
D|-5--3-0-3-5--0-3-0-8-5--3-3/5---3---3--3---3--3---1-1-1-1-1-1-1-1-|
A|-5--3-0-3-5--0-3-0-8-5--1-1/3---1---3--3---3--3---1-1-1-1-1-1-1-1-|
D|-5--3-0-3-5--0-3-0-8-5--------------3--3---3--3---1-1-1-1-1-1-1-1-|
                                                      0 0   0 0   0
E|---------------|
B|---------------|
G|---------------|
D|-0~~-----------|
A|-0~~/5-3-5-5-5-|
D|-0~~-----------|

Chorus

E|--------------------------------------------------------|
B|--------------------------------------------------------|
G|------------------------------------------------------3-|
D|-5-5-3-0-3-5--0-3-0-8-5--0-3-1--1-1-0-1-3--0-1-0-1-3--3-|
A|-5-5-3-0-3-5--0-3-0-8-5--0-3-1--1-1-0-1-3--0-1-0-1-3--1-|
D|-5-5-3-0-3-5--0-3-0-8-5--0-3-1--1-1-0-1-3--0-1-0-1-3----|

E|--------------------------------------------------------------|
B|--------------------------------------------------------------|
G|------------------------------------------------------3--3----|
D|-5-5-3-0-3-5--0-3-0-8-5--0-3-1--1-1-0-1-3--0-1-0-1-3--3--3-0--|
A|-5-5-3-0-3-5--0-3-0-8-5--0-3-1--1-1-0-1-3--0-1-0-1-3--1--1-0--|
D|-5-5-3-0-3-5--0-3-0-8-5--0-3-1--1-1-0-1-3--0-1-0-1-3-------0--|

  {    P. M   }
E|-----------------------|
B|-----------------------|
G|-----------------------|
D|-0-0-0-0-0-0--1~-3~-4~-|
A|-0-0-0-0-0-0--1~-3~-4~-|
D|-0-0-0-0-0-0--1~-3~-4~-|

Bridge 2

Repeat 4 times, goto Intro, but play from the last 2 parts, then goto  Chorus.
  The Chorus ends with the part, underneath this Bridge 2
E|----------|
B|----------|
G|----------|
D|-5-3--2-1-|
A|-5-3--2-1-|
D|-5-3--2-1-|

Ending

E|-------------------------------------------------|
B|-------------------------------------------------|
G|------------3-------------3-------------3-3------|
D|-0-1-0-1-3--3--0-1-0-1-3--3--0-1-0-1-3--3-3--5-5-|
A|-0-1-0-1-3--1--0-1-0-1-3--1--0-1-0-1-3--1-1--5-5-|
D|-0-1-0-1-3-----0-1-0-1-3-----0-1-0-1-3-------5-5-|
Suggest correction
Give kudos to tab author, rate the tab!
1 2 3 4 5
comments
print report bad tab
4 comments total. Showing first comments.
0 reply
KitaRox 219 Jul 17, 2006 08:33 AM

Hey, sorry, I can't place the P.M correctly with this editor here, it should be over the last two "3" chords, like underneath. The big P.M's should be only over the "8"s. But I think, you can here that from the song.
Greetings,
Steve

0 reply
@li@s H4nZu 20 Jul 19, 2006 11:18 AM

Hey,this is great!ive been looking for it everywhere..THX for putting it here!! :D

0 reply
KitaRox 219 Jul 19, 2006 11:48 AM

Hey, hope you like 'em! Thanks for you rpost! :)

guest
You may want to rate the tab now too:
select rating
Wanna post a correction for this tab? Suggest correction