Oops, an error
Loading. Please wait.

Get Heavy Tab

version 2
version 2

Whole song

Interactive

1,025 views 1 this week
no commentswrite comment
1 2 3 4 5
please rate
add to favorites
launch autoscroll
font size
0
reset
how to read this tab
guitar tuner
Autoscroll
slow
fast
+/-
esc
set tempo
stop
Help us to improve Ultimate-Guitar.com Take our survey!
×
Author
Tuning
D A D G B E
#----------------------------------PLEASE NOTE---------------------------------#
#This file is the author's own work and represents their interpretation of the #
#song. You may only use this file for private study, scholarship, or research. #
#------------------------------------------------------------------------------#

GET HEAVY
As recorded by Lordi
(Released as a Single in 2002)

Transcribed by Hard 'n' Heavy
        

Words and Music by Lordi
Arranged by Lordi

Gtr I (D A D G B E) - 'Untitled'
Gtr II (D A D G B E) - 'Untitled'
Gtr III (D A D G B E) - 'Untitled'

 Intro
  Q=140
            Bb5/G                                                   Eb5
 4/4
  Gtr I
                      PM------|       PM----------|       PM  PM  PM
  H..       E   +E  E E E E E E E   E E E E E E E E   E E E E E E E E
|-------------|-------------------|-----------------|-----------------|
|-------------|-------------------|-----------------|-----------------|
|-----------3-|-(3)-3-----------3-|-3---------------|-6-5---3---5-----|
|-----------3-|-(3)-3-----------3-|-3---------------|-6-5---3---5---1-|
|-------------|-------------------|-----------------|---------------1-|
|-------------|-------5-5-5-5-5---|---5-5-5-5-5-5-5-|-----5---5---5-1-|


                    $
          F5  Bb5/G                                                         Eb5
              PM|             PM------|       PM----------|       PM  PM  PM
  +E  E E E E E E E     +E  E E E E E E E   E E E E E E E E   E E E E E E E E
|-------------------||--------------------|-----------------|------------------|
|-------------------||o-------------------|-----------------|------------------|
|-----------------3-||--(3)-3-----------3-|-3---------------|-6-5---3---5------|
|-(1)-1---3-3-----3-||--(3)-3-----------3-|-3---------------|-6-5---3---5---1--|
|-(1)-1---3-3-------||o-------------------|-----------------|---------------1--|
|-(1)-1---3-3-5-5---||--------5-5-5-5-5---|---5-5-5-5-5-5-5-|-----5---5---5-1--|


                                               Verse
  1.                   2.
          F5      Bb5/F Eb5                     G5    Bb5C5 G5
              PM|
  +E  E E E E E E E     W           W           E E E Q   E E E
|--------------------||----------|-----------||------------------|
|-------------------o||----------|-----------||------------------|
|-----------------3--||----------|-/8--------||------------------|
|-(1)-1---3-3-----3--||-1--------|-/8--------||-5-5---8--10-5-5--|
|-(1)-1---3-3-------o||-1--------|-/6--------||-5-5---8--10-5-5--|
|-(1)-1---3-3-5-5----||-1--------|-----------||-5-5---8--10-5-5--|


    Bb5C5 G5        Bb5          F5           E5F5Gb5 G5    Bb5C5 G5
                       PM------|
  E Q   E E E E E   Q  E E E E E E   E Q  E E E E E   E E E Q   E E E
|-----------------|----------------|----------------|------------------|
|-----------------|----------------|----------------|------------------|
|-----------------|----------------|----------------|------------------|
|---8--10-5-5-5---|-8--8-8-8-8-8-3-|---3--3-3-2-3-4-|-5-5---8--10-5-5--|
|---8--10-5-5-5---|-8--8-8-8-8-8-3-|---3--3-3-2-3-4-|-5-5---8--10-5-5--|
|---8--10-5-5-5---|-8--8-8-8-8-8-3-|---3--3-3-2-3-4-|-5-5---8--10-5-5--|


    Bb5C5 G5        Bb5          F5                 Eb5
                       PM------|
  E Q   E E E E E   Q  E E E E E E   E H    E E E    Q   Q    H
|-----------------|----------------|--------------|-----------------|
|-----------------|----------------|--------------|-----------------|
|-----------------|----------------|--------------|-----------8-----|
|---8--10-5-5-5---|-8--8-8-8-8-8-3-|---3----3---3-|------8---(8)----|
|---8--10-5-5-5---|-8--8-8-8-8-8-3-|---3----3---3-|-/6--(6)--(6)----|
|---8--10-5-5-5---|-8--8-8-8-8-8-3-|---3----3---3-|-----------------|


               N.C.                        C5
                        ~
  +W           Q  E E E Q  E   E E E Q  Q  E   +Q    Q    H
|------------|---------------|---------------|------------------|
|------------|---------------|---------------|------------------|
|-(8)--------|---------------|---------------|------------5-----|
|-(8)--------|---------------|---------------|-------5---(5)----|
|-(6)--------|---------------|-------------3-|-(3)--(3)--(3)----|
|------------|-5--3-0-3-5--0-|-3-0-8-5--0----|------------------|


  Bb5        F5                          Eb5          D5
                                            PM------|
  W          Q  E H    E   Q  E H    E   Q  E E E E E E
|----------|-------------|-------------|-----------------|
|----------|-------------|-------------|-----------------|
|-3--------|-------------|-------------|-----------------|
|-3--------|-3--x-3----3-|-3--x-3----3-|-1------------0--|
|-1--------|-3--x-3----3-|-3--x-3----3-|-1------------0--|
|----------|-3--x-3----3-|-3--x-3----3-|-1--1-1-1-1-1-0--|


                    Chorus
  D5                 G5 F5D5F5G5 D5  F5D5BbG5 D5F5Eb5      D5EbF5     D5
             ~~
  +E  E Q  E Q.      Q  E E E Q  E   E E E Q  E E E   +Q   E E Q  +E  E
|-----------------||---------------|----------------|--------------------|
|-----------------||---------------|----------------|--------------------|
|-----------------||---------------|----------------|--------------------|
|-(0)-0-----------||-5--3-0-3-5--0-|-3-0-8-5--0-3-1-|-(1)--0-1-3--(3)-0--|
|-(0)-0-5--3-5----||-5--3-0-3-5--0-|-3-0-8-5--0-3-1-|-(1)--0-1-3--(3)-0--|
|-(0)-0-----------||-5--3-0-3-5--0-|-3-0-8-5--0-3-1-|-(1)--0-1-3--(3)-0--|


  EbD5EbF5 Bb5G5       F5D5F5G5 D5  F5D5BbG5 D5F5Eb5      D5EbF5     D5
  E E E Q  Q  E   +Q   E E E Q  E   E E E Q  E E E   +Q   E E Q  +E  E
|---------------|-----------------|----------------|--------------------|
|---------------|-----------------|----------------|--------------------|
|---------------|-----------------|----------------|--------------------|
|-1-0-1-3--8--5-|-(5)--3-0-3-5--0-|-3-0-8-5--0-3-1-|-(1)--0-1-3--(3)-0--|
|-1-0-1-3--8--5-|-(5)--3-0-3-5--0-|-3-0-8-5--0-3-1-|-(1)--0-1-3--(3)-0--|
|-1-0-1-3--8--5-|-(5)--3-0-3-5--0-|-3-0-8-5--0-3-1-|-(1)--0-1-3--(3)-0--|


           D.S.
  EbD5EbF5   Bb5/D5               Eb5  F5   G5
                    PM--------|
  E E E H    E   Q  E E E E E E   Q.   Q.   Q
|--------------|----------------|--------------||
|--------------|----------------|--------------||
|------------3-|----------------|--------------||
|-1-0-1-3----3-|-0--------------|-1----3----5--||
|-1-0-1-3------|-0--------------|-1----3----5--||
|-1-0-1-3------|-0--0-0-0-0-0-0-|-1----3----5--||


 Interlude
  G5    Gb5          F5    E5           G5    Gb5         F5        E5
                                                              ~~~
  E Q   Q   Q.       E Q   Q   Q.       E Q   Q   Q   E   +E  H..
|-6-5--------------|-6-5--------------|-6-5-------------|----------------------|
|-------8---6------|-------8---6------|-------8---6---6-|-(6)-8----------------|
|------------------|------------------|-----------------|----------------------|
|------------------|------------------|-----------------|----------------------|
|------------------|------------------|-----------------|----------------------|
|------------------|------------------|-----------------|----------------------|
|
| Gtr III
|   PM|   PM-----|     PM|   PM-----|     PM|   PM----|       PM--|   PM----|
| E E E E E E  E E   E E E E E E  E E   E E E E E E E E    E  E   E E E E E E
|------------------|------------------|-----------------|----------------------|
|------------------|------------------|-----------------|----------------------|
|------------------|------------------|-----------------|----------------------|
|-5-----4----------|-3-----2----------|-5-----4---------|--3--------2----------|
|-5-----4----------|-3-----2----------|-5-----4---------|--3--------2----------|
|-5-5-5-4-4-4--4-4-|-3-3-3-2-2-2--2-2-|-5-5-5-4-4-4-4-4-|--3--3---3-2-2-2-2-2--|


  G5    Gb5          F5    E5           G5    Gb5         F5       E5      Bb5/F
  Gtr I
                                                              ~~
  E Q   Q   Q.       E Q   Q   Q.       E Q   Q   Q   E   +E  H.           E
|------------------|------------------|-----------------|---------------------||
|------------------|------------------|-----------------|---------------------||
|-7-5--------------|-7-5--------------|-7-5-------------|------------------3--||
|-------8---7------|-------8---7------|-------8---7---7-|-(7)-8------------3--||
|------------------|------------------|-----------------|---------------------||
|------------------|------------------|-----------------|---------------------||
|
| Gtr II
|                                                             ~~
| E Q   Q   Q.       E Q   Q   Q.       E Q   Q   Q   E   +E  H.           E
|-6-5--------------|-6-5--------------|-6-5-------------|---------------------||
|-------8---6------|-------8---6------|-------8---6---6-|-(6)-8---------------||
|------------------|------------------|-----------------|------------------3--||
|------------------|------------------|-----------------|------------------3--||
|------------------|------------------|-----------------|---------------------||
|------------------|------------------|-----------------|---------------------||
|
| Gtr III
|   PM|   PM-----|     PM|   PM-----|     PM|   PM----|       PM-|   PM----|
| E E E E E E  E E   E E E E E E  E E   E E E E E E E E    E  E  E E E E E E
|------------------|------------------|-----------------|---------------------||
|------------------|------------------|-----------------|---------------------||
|------------------|------------------|-----------------|---------------------||
|-5-----4----------|-3-----2----------|-5-----4---------|--3-------2----------||
|-5-----4----------|-3-----2----------|-5-----4---------|--3-------2----------||
|-5-5-5-4-4-4--4-4-|-3-3-3-2-2-2--2-2-|-5-5-5-4-4-4-4-4-|--3--3--3-2-2-2-2-2--||


   Guitar Break
        Bb5/G
    Gtrs I, II
          PM------|       PM----------|
    +E  E E E E E E E   E E E E E E E E
||--------------------|-----------------|
||o-------------------|-----------------|
||--(3)-3-----------3-|-3---------------|
||--(3)-3-----------3-|-3---------------|
||o-------------------|-----------------|
||--------5-5-5-5-5---|---5-5-5-5-5-5-5-|


                   1.                    2.
                Eb5         F5      Bb5/G Eb5
      PM  PM  PM                PM|
  E E E E E E E E   +E  E E E E E E E     W
|-----------------|--------------------||------|
|-----------------|-------------------o||------|
|-6-5---3---5-----|-----------------3--||------|
|-6-5---3---5---1-|-(1)-1---3-3-----3--||-1----|
|---------------1-|-(1)-1---3-3-------o||-1----|
|-----5---5---5-1-|-(1)-1---3-3-5-5----||-1----|


              Out-Chorus
               G5 F5D5F5G5 D5  F5D5BbG5 D5F5Eb5      D5EbF5     D5
   W           Q  E E E Q  E   E E E Q  E E E   +Q   E E Q  +E  E
|-----------||---------------|----------------|--------------------|
|-----------||---------------|----------------|--------------------|
|-/8--------||---------------|----------------|--------------------|
|-/8--------||-5--3-0-3-5--0-|-3-0-8-5--0-3-1-|-(1)--0-1-3--(3)-0--|
|-/6--------||-5--3-0-3-5--0-|-3-0-8-5--0-3-1-|-(1)--0-1-3--(3)-0--|
|-----------||-5--3-0-3-5--0-|-3-0-8-5--0-3-1-|-(1)--0-1-3--(3)-0--|


  EbD5EbF5 Bb5G5       F5D5F5G5 D5  F5D5BbG5 D5F5Eb5      D5EbF5     D5
  E E E Q  Q  E   +Q   E E E Q  E   E E E Q  E E E   +Q   E E Q  +E  E
|---------------|-----------------|----------------|--------------------|
|---------------|-----------------|----------------|--------------------|
|---------------|-----------------|----------------|--------------------|
|-1-0-1-3--8--5-|-(5)--3-0-3-5--0-|-3-0-8-5--0-3-1-|-(1)--0-1-3--(3)-0--|
|-1-0-1-3--8--5-|-(5)--3-0-3-5--0-|-3-0-8-5--0-3-1-|-(1)--0-1-3--(3)-0--|
|-1-0-1-3--8--5-|-(5)--3-0-3-5--0-|-3-0-8-5--0-3-1-|-(1)--0-1-3--(3)-0--|


  EbD5EbF5 Bb5    EbD5EbF5 Bb5    EbD5EbF5 Bb5    G5
  E E E Q  Q.     E E E Q  Q.     E E E Q  Q.     S S S S Q  H
|---------------|---------------|---------------|-----------------*|
|---------------|---------------|---------------|-----------------*|
|---------------|---------------|---------------|-----------------*|
|-1-0-1-3--8----|-1-0-1-3--8----|-1-0-1-3--8----|-5-5-5-5-5-------*|
|-1-0-1-3--8----|-1-0-1-3--8----|-1-0-1-3--8----|-5-5-5-5-5-------*|
|-1-0-1-3--8----|-1-0-1-3--8----|-1-0-1-3--8----|-5-5-5-5-5-------*|



Duration Legend
---------------
W - whole; H - half; Q - quarter; E - 8th; S - 16th; T - 32nd; X - 64th; a - acciaccatura
+ - note tied to previous; . - note dotted; .. - note double dotted
Uncapitalized letters represent notes that are staccato (1/2 duration)
Irregular groupings are notated above the duration line
Duration letters will always appear directly above the note/fret number it represents the
duration for.  Duration letters with no fret number below them represent rests.  Multi-
bar rests are notated in the form Wxn, where n is the number of bars to rest for.  Low
melody durations appear below the staff

Tablature Legend
----------------
 h   - hammer-on
 p   - pull-off
 b   - bend
 pb  - pre-bend
 r   - bend release (if no number after the r, then release immediately)
 /\  - slide into or out of (from/to "nowhere")
 s   - legato slide
 S   - shift slide
 - natural harmonic
[n]  - artificial harmonic
n(n) - tapped harmonic
 ~   - vibrato
 tr  - trill
 T   - tap
 TP  - trem. picking
 PM  - palm muting
\n/  - tremolo bar dip; n = amount to dip
 \n  - tremolo bar down
 n/  - tremolo bar up
/n\  - tremolo bar inverted dip
 =   - hold bend; also acts as connecting device for hammers/pulls
 <> - volume swell (louder/softer)
 x   - on rhythm slash represents muted slash
 o   - on rhythm slash represents single note slash

Misc Legend
-----------
 |  - bar
||  - double bar
||o - repeat start
o|| - repeat end
*|  - double bar (ending)
 :  - bar (freetime)
 $  - Segno
 &  - Coda
Tempo markers -  = BPM(8/16=s8/s16), where s8 = swing 8ths, s16 = swing 16ths

Suggest correction
Give kudos to tab author, rate the tab!
1 2 3 4 5
comments
print report bad tab
guest
You may want to rate the tab now too:
select rating
Please do not post tabs as comments. Select "correction" instead!