Oops, an error
Loading. Please wait.

Girls Go Chopping Bass Tab

version 1
version 1

Whole song

Interactive

1,085 views 6 this week
no commentswrite comment
1 2 3 4 5
please rate
add to favorites
launch autoscroll
font size
0
reset
guitar tuner
Autoscroll
slow
fast
+/-
esc
set tempo
stop
Help us to improve Ultimate-Guitar.com Take our survey!
×
Author
Sewe Dae 1,304
Song: Girls Go Chopping
Band: Lordi
Tabbed by: unspeakable.elvis@gmail.com

Standard tuning


Intro
~~~~~
 Riff A (play x2)
|---------------------------------|---------------------------------|
|---------------------------------|---------------------------------|
|-------0---2---0---------2-0-----|-------0---2---0---------3-3-----|
|-2---------------------------2-0-|-2-------------------------------|

 Riff B (play x2)
|---------------------------------|---------------------------------|
|---------------------------------|---------------------------------|
|-------0-0-2-2-0-0-0-0-0-2-0-----|-------0-0-2-2-0-0-0-0-0-3-3-----|
|-2-2-2-----------------------2-0-|-2-2-2---------------------------|


Verse
~~~~~
|---------------------------------|---------------------------------|
|---------------------------------|---------------------------------|
|---------------------------------|---------------------------------|
|-2-2-2-2-2-2-2-2-2-2-2-2-2-2-2-2-|-2-2-2-2-2-2-2-2-2-2-2-2-2-2-2-2-|

|---------------------------------|---------------------------------|
|---------------------------------|---------------------------------|
|-0-0-0-0-0-0-0-0-0-0-0-0-0-0-0---|-2-2-2-2-2-2-2-2-5-5-5-5-5-5-5-5-|
|-------------------------------2-|---------------------------------|


|---------------------------------|---------------------------------|
|---------------------------------|---------------------------------|
|---------------------------------|---------------------------------|
|-2-2-2-2-2-2-2-2-2-2-2-2-2-2-2-2-|-2-2-2-2-2-2-2-2-2-2-2-2-2-2-2-2-|

|---------------------------------|------------------------------------|
|---------------------------------|-----------------------/12---12-12\-|
|-0-0-0-0-0-0-0-0-0-0-0-0-0-0-0---|-2-2-2-2-2-2-2-2-5-5----------------|
|-------------------------------2-|------------------------------------|


Pre-Chorus
~~~~~~~~~~
|---------------------------------|---------------------------------|
|---------------------------------|---------------------------------|
|---------------------------------|-2-2-2-2-2-2-2-2-1-1-1-1-1-1-1-1-|
|-3-3-3-3-3-3-3-3-2-2-2-2-2-2-2-2-|---------------------------------|

|---------------------------------|---------------------------------|
|---------------------------------|---------------------------------|
|-----------------1-1-1-1-1-1-1-1-|---------------------------------|
|-0-0-0-0-0-0-0-0-----------------|-2-2---------2-2---------2--2--2-|


Chorus
~~~~~~
|---------------------------------|---------------------------------|
|---------------------------------|---------------------------------|
|-2-2-2-2-2-2-2-2-2-2-2-2-2-2-2-2-|-----------------0-0-0-0-0-0-0-0-|
|---------------------------------|-3-3-3-3-3-3-3-3-----------------|

|---------------------------------|---------------------------------|
|---------------------------------|-------------------------2-0-----|
|-2-2-2-2-2-2-2-2-2-2-2-2-2-2-2-2-|-----------0-2-2-0-0-0-0-----2-0-|
|---------------------------------|-3-3-3-3-3-----------------------|


|---------------------------------|---------------------------------|
|---------------------------------|---------------------------------|
|-2-2-2-2-2-2-2-2-2-2-2-2-2-2-2-2-|-------------0---0-0-0-0-0-0-2-0-|
|---------------------------------|-3-3-3-3-3-3---3-----------------|

|---------------------------------|---------------------------------|
|---------------------------------|---------------------------------|
|-2-2-2-2-2-2-2-2-2-2-2-2-2-2-2-2-|-----------------0-0-0-0-0-0-0-0-|
|---------------------------------|-3-3-3-3-3-3-3-3-----------------|

Back to Intro Riff B, Verse, Pre-Chorus, Chorus, after which:

Pre-Solo Riff
~~~~~~~~~~~~~
|---------------------------------|---------------------------------|
|---------------------------------|---------------------------------|
|---------------------------5---7-|---------------------------5---7-|
|-0-7-6-5-0-2-3-0-5-6-7-0-3---6---|-0-7-6-5-0-2-3-0-5-6-7-0-3---6---|


|---------------------------------|---------------------------------|
|---------------------------------|---------------------------------|
|---------------------------5---7-|---------------------------------|
|-0-7-6-5-0-2-3-0-5-6-7-0-3---6---|-0-7-6-5-0-2-3-0-5-6-7-0-3-------|


Solo
~~~~
|---------------------------------|---------------------------------|
|----------rest-------------------|-----------------------------5-2-|
|---------------------------------|---------------------------------|
|---------------------------------|---------------------------------|


|---------------------------------|---------------------------------|
|-----------5-2-----5-2-----5-2---|-----------------------------5-2-|
|-1-------------0-----------------|---------------------------------|
|-----------------------3-------0-|---------------------------------|


|---------------------------------|---------------------------------|
|-----------5-2-----5-2-----5-2---|----------------/5-4-2-----------|
|-1-------------0-----------------|-----------------------2-5-4-2---|
|-----------------------3-------0-|-------------------------------5-|


|---------------------------------|---------------------------------|
|---------------------------------|---------------------------------|
|---------------------------------|-2-2-2-2-2-2-2-2-1-1-1-1-1-1-1-1-|
|-3-3-3-3-3-3-3-3-2-2-2-2-2-2-2-2-|---------------------------------|


|---------------------------------|---------------------------------|
|---------------------------------|---------------------------------|
|-----------------1-1-1-1-1-1-1-1-|-------0---2---0---------2-0-----|
|-0-0-0-0-0-0-0-0-----------------|-2---------------------------2-0-|


|---------------------------------|---------------------------------|
|---------------------------------|---------------------------------|
|-------0---2---0---------3-3-----|-------0---2---0---------2-0-----|
|-2-------------------------------|-2---------------------------2-0-|


|---------------------------------|
|---------------------------------|
|---------------------------------|
|-2-2---------2-2---------2--2--2-|


Back to Chorus, then Pre-Solo Riff until End.
Suggest correction new What's this?
You can suggest a correction to this tab. Community and Mods will review your correction and vote to approve or reject it.
comments
We did not receive enough feedback on this tab! Please rate:
print report bad tab
1 2 3 4 5
guest
You may want to rate the tab now too:
select rating
Please do not post tabs as comments. Select "correction" instead!