Oops, an error
Loading. Please wait.

Girls Go Chopping Tab

version 1
version 1

Whole song

Interactive

1,720 views 1 this week
no commentswrite comment
1 2 3 4 5
2 more votes to show rating
add to favorites
launch autoscroll
font size
0
reset
how to read this tab
guitar tuner
Autoscroll
slow
fast
+/-
esc
set tempo
stop
Help us to improve Ultimate-Guitar.com Take our survey!
×
Author
Song: Girls Go Chopping
Band: Lordi
Tabbed by: unspeakable.elvis@gmail.com

Standard tuning

Legend:
.       palm mute
h       hammer on
p       pull off
/       slide up to note
\       slide down from note
7b9     bend 7th fret major second up
9r7     release previous bend
x       dead note
~       vibrato
[9]     artificial harmonic on 9th fret
7b9r7p5 bend 7th fret up, then release bend and pull off to 5th fret.
7b9-b9  bend 7th fret up major second, then strike string again while bent


Intro
~~~~~
 Riff A (play x2)
|---------------------------------|---------------------------------|
|---------------------------------|---------------------------------|
|---------------------------------|---------------------------------|
|-------2---4---2---------4-2-----|-------2---4---2---------5-5-----|
|-4-----0---2---0---------2-0-4-2-|-4-----0---2---0---------3-3-----|
|-2---------------------------2-0-|-2-------------------------------|


 Riff B (play x2)
|---------------------------------|---------------------------------|
|---------------------------------|---------------------------------|
|---------------------------------|---------------------------------|
|-------2---4---2---------4-2-----|-------2---4---2---------5-5-----|
|-4-----0-0-2-2-0-0-0-0-0-2-0-4-2-|-4-----0-0-2-2-0-0-0-0-0-3-3-----|
|-2-2-2-----------------------2-0-|-2-2-2---------------------------|
    . .   .   .   . . . .             . .   .   .   . . . .


Verse
~~~~~
 "girls go chopping on the town..."
|---------------------------------|----------------------------------|
|---------------------------------|----------------------------------|
|---------------------------------|------------------------[4]-2-----|
|---------------------------------|------------------------------4-2-|
|-4-4-4-4-4-4-4-4-4-4-4-4-------4-|-4-4-4-4-4-4-4-4-4-4-4-4----------|
|-2-2-2-2-2-2-2-2-2-2-2-2-2-5-2---|-2-2-2-2-2-2-2-2-2-2-2-2----------|
  . . . . . . . . . . . . . . . .   . . . . . . . . . . . .

 "beauties on a killing spree..."
|---------------------------------|---------------------------------|
|---------------------------------|---------------------------3---3-|
|---------------------------------|-----------------2-2-2-2-2-2---2-|
|-2-2-2-2-2-2-2-2-2-2-2-2-2-2-2-2-|-4-4-4-4-4-4-4-4-0-0-0-0-0-------|
|-0-0-0-0-0-0-0-0-0-0-0-0-0-0-0-0-|-2-2-2-2-2-2-2-2-----------------|
|---------------------------------|---------------------------------|
  . . . . . . . . . . . . . . . .   . . . . . . . . . . . . .

 "evil women, psycho chicks..."
|---------------------------------|----------------------------------|
|---------------------------------|----------------------------------|
|---------------------------------|------------------------[4]-2-----|
|---------------------------------|------------------------------4-2-|
|-4-4-4-4-4-4-4-4-4-4-4-4-------4-|-4-4-4-4-4-4-4-4-4-4-4-4----------|
|-2-2-2-2-2-2-2-2-2-2-2-2-2-5-2---|-2-2-2-2-2-2-2-2-2-2-2-2----------|
  . . . . . . . . . . . . . . . .   . . . . . . . . . . . .

 "mad, ferocious, feminine..."                                "they're..."
|---------------------------------|---------------------------------|
|---------------------------------|-------------------3---3---------|
|---------------------------------|-----------------2-2-2-2---------|
|-2-2-2-2-2-2-2-2-2-2-2-2-2-2-2-2-|-4-4-4-4-4-4-4-4-0-0-0-0---------|
|-0-0-0-0-0-0-0-0-0-0-0-0-0-0-0-0-|-2-2-2-2-2-2-2-2-------0---------|
|---------------------------------|---------------------------------|
  . . . . . . . . . . . . . . . .   . . . . . . . . .   .


Pre-Chorus
~~~~~~~~~~
"...rising at midnight..."
|---------------------------------|---------------------------------|
|---------------------------------|---------------------------------|
|---------------------------------|-4---------------3---------------|
|-5---------------4---------------|-4---------------4---------------|
|-5---------------4---------------|-2---------------1---------------|
|-3---------------2---------------|---------------------------------|


 "they'll pay back betrayal with rage..."
|---------------------------------|---------------------------------|
|---------------------------------|---------------------------------|
|-----------------3---------------|---------------------------------|
|-2---------------4---------------|---------------------------------|
|-2---------------1---------------|-4-4---------4-4---------4--4--4-|
|-0-------------------------------|-2-2-2-2-2-2-2-2-2-2-2-2-2--2--2-|
                                        * * * *     * * * *
                                        natural harmonics


Chorus
~~~~~~
 "girls go   chopping    for revenge..."  etc.
|---------------------------------|---------------------------------|
|---------------------------------|---------------------------------|
|-4-----4-----4-----4-----4---4---|-----------------2---------------|
|-4-----4-----4-----4-----4---4---|-5---------------2---------------|
|-2---2-2---2-2---2-2---2-2-2-2-2-|-5---------------0---------------|
|---------------------------------|-3-------------------------------|
      .     .     .     .   .   .
  Play x4


Then Intro Riff B, after which:


Second Verse
~~~~~~~~~~~~
 "girls go chopping on the town..."
|---------------------------------|----------------------------------|
|---------------------------------|----------------------------------|
|---------------------------------|------------------------[4]-2-----|
|---------------------------------|------------------------------4-2-|
|-4-4-4-4-4-4-4-4-4-4-4-4-4-4-4-4-|-4-4-4-4-4-4-4-4-4-4-4-4----------|
|-2-2-2-2-2-2-2-2-2-2-2-2-2-2-2-2-|-2-2-2-2-2-2-2-2-2-2-2-2----------|
  . . . . . . . . . . . . . . . .   . . . . . . . . . . . .

 "zombie babes with teasing hips..."
|---------------------------------|---------------------------------|
|---------------------------------|---------------------------3---3-|
|---------------------------------|-----------------2-2-2-2-2-2---2-|
|-2-2-2-2-2-2-2-2-2-2-2-2-2-2-2-2-|-4-4-4-4-4-4-4-4-0-0-0-0-0-------|
|-0-0-0-0-0-0-0-0-0-0-0-0-0-0-0-0-|-2-2-2-2-2-2-2-2-----------------|
|---------------------------------|---------------------------------|
  . . . . . . . . . . . . . . . .   . . . . . . . . . . . . .

 "every reason to attack..."
|---------------------------------|----------------------------------|
|---------------------------------|----------------------------------|
|---------------------------------|------------------------[4]-2-----|
|---------------------------------|------------------------------4-2-|
|-4-4-4-4-4-4-4-4-4-4-4-4-4-4-4-4-|-4-4-4-4-4-4-4-4-4-4-4-4----------|
|-2-2-2-2-2-2-2-2-2-2-2-2-2-2-2-2-|-2-2-2-2-2-2-2-2-2-2-2-2----------|
  . . . . . . . . . . . . . . . .   . . . . . . . . . . . .

 "go berzerk miss piggy style..."                           "they're..."
|---------------------------------|---------------------------------|
|---------------------------------|-------------------3---3---------|
|---------------------------------|-----------------2-2-2-2---------|
|-2-2-2-2-2-2-2-2-2-2-2-2-2-2-2-2-|-4-4-4-4-4-4-4-4-0-0-0-0---------|
|-0-0-0-0-0-0-0-0-0-0-0-0-0-0-0-0-|-2-2-2-2-2-2-2-2-------0---------|
|---------------------------------|---------------------------------|
  . . . . . . . . . . . . . . . .   . . . . . . . . .   .


Then Pre-Chorus and Chorus, after which:

Pre-Solo Riff
~~~~~~~~~~~~~
|---------------------------------|---------------------------------|
|---------------------------------|---------------------------------|
|---------------------------------|---------------------------------|
|---------------------------0---2-|---------------------------0---2-|
|---2-1-0---------0-1-2-------1---|---2-1-0---------0-1-2-------1---|
|-0-------0-2-3-0-------0-3-------|-0-------0-2-3-0-------0-3-------|


|---------------------------------|---------------------------------|
|---------------------------------|---------------------------------|
|---------------------------------|---------------------------------|
|---------------------------0---2-|---------------------------------|
|---2-1-0---------0-1-2-------1---|---2-1-0---------0-1-2-----------|
|-0-------0-2-3-0-------0-3-------|-0-------0-2-3-0-------0-3-------|


Solo
~~~~
|-------------------------------------------|
|-15b17--------------b17-----b17-----b17r15-|
|-------------------------------------------|
|-------------------------------------------|
|-------------------------------------------|
|-------------------------------------------|
                             ^begin slow release

|------------------------------------------------------------------------------|
|-15-12-15-15b17~~~---15-12-15---15b17r15p12-15---15b17r15p12-15---15b17~~~----|
|------------------------------------------------------------------------------|
|------------------------------------------------------------------------------|
|------------------------------------------------------------------------------|
|------------------------------------------------------------------------------|


|-15-12----12--------------------------------|
|-------15----15-12-15-12----12--------------|
|-------------------------15----15-14-12-----|
|--------------------------------------------|
|--------------------------------------------|
|--------------------------------------------|


|-----------15b17r15-12--------------------------------------------|
|-----------------------15b17r15\12--------------------------------|
|-12\-0--12-----------------------------------12-------channel-----|
|-------------------------------------12--14--12--14---flipping----|
|-------------------------------------12--14------14---------------|
|------------------------------------------------------------------|


|-------------------------------------|-------------------------------------|
|-------------------------------------|-------------------------------------|
|-12--11--------------11-12-14-12-11--|-16--14--12----------12-14-16-14-12--|
|---------14--12--14------------------|-------------16--14------------------|
|-------------------------------------|-------------------------------------|
|-------------------------------------|-------------------------------------|


|-------------------------------------|--------------------------------------------|
|-15--14--12----------12-14-15-14-12--|-15-14-12-14-12----12-----------------------|
|-------------14--12------------------|----------------14----14-12-14-12-----------|
|-------------------------------------|----------------------------------14-14~~~~-|
|-------------------------------------|--------------------------------------------|
|-------------------------------------|--------------------------------------------|

                
|-12--------13--------|-14----------14----------14---------14---------| Continue this bend 
|-15b17-----16b18-----|-17b19~~~----17b19~~~~---17b19~~~---17b19~~~---| with variation
|---------------------|-----------------------------------------------| until the intro part
|---------------------|-----------------------------------------------| is repeated again
|---------------------|-----------------------------------------------|
|---------------------|-----------------------------------------------|


Solo Rhythm
~~~~~~~~~~~
|---------------------------------|---------------------------------|
|---------------------------------|---------------------------------|
|-----------rest------------------|-----------------------------0---|
|---------------------------------|-------------------------------2-|
|---------------------------------|---------------------------------|
|---------------------------------|---------------------------------|


|---------------------------------|---------------------------------|
|---------------------------------|---------------------------------|
|-----------0-------0-------0-----|-----------------------------0---|
|-------------2-------2-------2---|-------------------------------2-|
|-1~~-----------0-----------------|---------------------------------|
|-----------------------3-------0-|---------------------------------|


|---------------------------------|---------------------------------|
|---------------------------------|---------------------------------|
|-----------0-------0-------0-----|---------------------------------|
|-------------2-------2-------2---|-----channel flipping------------|
|-1~~-----------0-----------------|---------------------------------|
|-----------------------3-------0-|---------------------------------|


|---------------------------------|---------------------------------|
|---------------------------------|---------------------------------|
|---------------------------------|-4---------------3---------------|
|-5---------------4---------------|-4---------------4---------------|
|-5---------------4---------------|-2---------------1---------------|
|-3---------------2---------------|---------------------------------|


|---------------------------------|---------------------------------|
|---------------------------------|---------------------------------|
|-----------------3---------------|---------------------------------|
|-2---------------4---------------|-------2---4---2---------4-2-----|
|-2---------------1---------------|-4-----0---2---0---------2-0-4-2-|
|-0-------------------------------|-2---------------------------2-0-|


|---------------------------------|---------------------------------|
|---------------------------------|---------------------------------|
|---------------------------------|---------------------------------|
|-------2---4---2---------5-5-----|-------2---4---2---------4-2-----|
|-4-----0---2---0---------3-3-----|-4-----0---2---0---------2-0-4-2-|
|-2-------------------------------|-2---------------------------2-0-|


|---------------------------------|
|---------------------------------|
|---------------------------------|
|---------------------------------|
|-4-4---------4-4---------4--4--4-|
|-2-2-2-2-2-2-2-2-2-2-2-2-2--2--2-|
      * * * *     * * * *
      natural harmonics


After Solo: Back to Chorus, then Pre-Solo Riff until End.
Suggest correction
Give kudos to tab author, rate the tab!
1 2 3 4 5
comments
print report bad tab
guest
You may want to rate the tab now too:
select rating
Wanna post a correction for this tab? Suggest correction