Oops, an error
Loading. Please wait.

Good To Be Bad Tab

version 1
version 1

Whole song

Interactive

3,345 views 6 this week
1 commentread comment
1 2 3 4 5
excellent!
x 3
add to favorites
launch autoscroll
font size
0
reset
how to read this tab
guitar tuner
Tab Pro tools
  • play this tab
  • loop segment
  • change instrument
  • show fretboard
  • metronome
×
Best way to learn
"Good To Be Bad"
Autoscroll
slow
fast
+/-
esc
set tempo
stop
Contributor
Difficulty
Tuning
intermediate
D A D G B E
Good to be Bad
The Arockalypse
Lordi
Tabbed by Stephan Peters; webmaster@stephanpeters.de


Use dropped D Tuning and have fun, it’s pretty easy!

/= slide up
\= slide down
x= mute note
h= hammer on
P.M = Palm Mute
b = bend string up
r = release string


Intro                          | 2nd Intro repeat it, at the second time
                                                      the (chords)

E|------------------------------|--------------------------------------|
B|------------------------------|--------------------------------------|
G|------------------------------|--------------------------------------|
D|-5-7-------5-7---3--3-5-5-5-5-|7--7--7-7--7-5---5--5--5-7--7--7-7--7-|
A|-5-7-------5-7---3--3-5-5-5-5-|7--7--7-7--7-5---5--5--5-7--7--7-7--7-|
D|-5-7-------5-7----------------|--------------------------------------|

E|------------------|
B|------------------|
G|------------------|
D|-3---7--5-5-(3-3)-|
A|-3---7--5-5-(3-3)-|
D|------------------|

Verse
E|------------------------------------------------------------|
B|------------------------------------------------------------|
G|------------------------------------------------------------|
D|-7--7-7--7-7-7--7-7--7-7--7-7--7-7--7-7-7-5--5-3------5-3---|
A|-7--7-7--7-7-7--7-7--7-7--7-7--7-7--7-7-7-5------5--------5-|
D|-7--7-7--7-7-7--7-7--7-7--7-7--7-7--7-7-7-5---------5-------|

E|--------------------------------------------------------------------|
B|--------------------------------------------------------------------|
G|--------------------------------------------------------------------|
D|-7--7-7--7-7-7--7-7--7-7--7-7--7-7--7-7-7-5-------------------------|
A|-7--7-7--7-7-7--7-7--7-7--7-7--7-7--7-7-7-5--3r-0-h3-0-h3-0-h3-0----|h3
D|-7--7-7--7-7-7--7-7--7-7--7-7--7-7--7-7-7-5-------------------------|


           | Bridge all palm-mute except the chords
E|---------|----------------------7-5------------------------------|
B|---------|------3-3-1-1-----3-3-----6-6-3-3-----5-5--------------|
G|---------|--------------2-2-----------------2-2-----5-5-2-2------|
D|---------|--3-3---------------------------------------------10-5-|
A|-0-h3-0--|--------------------------------------------------10-5-|
D|---------|--------------------------------------------------10-5-|

 |P.M |A.H|P.M|A.H
E|----------------------------------------|
B|----------------------------------------|
G|-----------------7---5------------------|
D|-3-3--3--2-2--2--7---5--2--5--2--5--2-5-|
A|-3-3-----2-2-----5---3--2--5--2--5--2-5-|
D|-3-3-----2-2------------2--5--2--5--2-5-|


Refrain  after Refrain go to 2nd Intro and play till the Refrain ends with “A”
         Then go on to the Solo
E|---------------------------------------------------------------|
B|---------------------------------------------------------------|
G|---------------------------------------------------------------|
D|-----7-----3-----5-----5-7-----------3---2-3-----2-3-10-7-5-10-|
A|-----7-----3-----5-----5-7-----------3---2-3-----2-3-10-7-5-10-|
D|-7-7-7-7-3-3-3-3-5-5-5-5-7-7-7-7-3-3-3-3-2-3-3-3-2-3-10-7-5-10-|


E|------------------------------------------------------------------|
B|------------------------------------------------------------------|
G|------------------------------------------------------------------|
D|-----7-----3-----5-----5-7-----------3---2-3-------3-----2-3-10-7-|
A|-----7-----3-----5-----5-7-----------3---2-3-------3-----2-3-10-7-|
D|-7-7-7-7-3-3-3-3-5-5-5-5-7-7-7-7-3-3-3-3-2-3-3-3-3-3-3-3-2-3-10-7-|


Solo
E|----------------10----------------------10--12-12--10----10-|
B|-12\--12-10-12-----13-12--10-12--13-13----------------13----|
G|------------------------------------------------------------|
D|------------------------------------------------------------|
A|------------------------------------------------------------|
D|------------------------------------------------------------|


E|-----------10--------------------------10-10----10-12~--16~--17~-|
B|-12-10-12-----13-12--10-12--13-13--13--------13------------------|
G|-----------------------------------------------------------------|
D|-----------------------------------------------------------------|
A|-----------------------------------------------------------------|
D|-----------------------------------------------------------------|


Bridge 2

E|---------------------------------------------------------|
B|---------------------------------------------------------|
G|---------------------------------------------------------|
D|-5-7-----3--5-5-5-5-5-7----7-5----5-7----7-3--7--5-5-7---|
A|-5-7-----3--5-5-5-5-5-7----7-5----5-7----7-3--7--5-5-7---|
D|-5-7----------------5-7----7-5----5-7----7-3---------7---|

 |Crescendo <                     |Crescendo <     |Crescendo <
E|-----------------------------------------------------------------|
B|-----------------------------------------------------------------|
G|-----------------------------------------------------------------|
D|-----------------------------------------------------------------|
A|-----------------------------------------------------------------|
D|-6-6-6-6-6-6-6-6-6-6-6-6-6-6-6-6-8-8-8-8-8-8-8-8-9-9-9-9-9-9-9-9-|


Refrain 2  Repeat two times  play the last chord (10) in the second time
E|-------------------------------------------------------------------|
B|-------------------------------------------------------------------|
G|-------------------------------------------------------------------|
D|-------10------6-----8-----8-10--------------6---5-6-----5-6-13-10-|
A|-------10------6-----8-----8-10--------------6---5-6-----5-6-13-10-|
D|-10-10-10-10-6-6-6-6-8-8-8-8-10-10-10-10-6-6-6-6-5-6-6-6-5-6-13-10-|

E|-----
B|-----
G|-----
D|-8-13
A|-8-13
D|-8-13

E|------------------------------------------------------------------|
B|------------------------------------------------------------------|
G|------------------------------------------------------------------|
D|-------10------6-----8-----8-10--------------6---5-6-------6------|
A|-------10------6-----8-----8-10--------------6---5-6-------6------|
D|-10-10-10-10-6-6-6-6-8-8-8-8-10-10-10-10-6-6-6-6-5-6-6-6-6-6-6-6--|

E|-------------|
B|-------------|
G|-------------|
D|-5-6-13-(10\-|
A|-5-6-13-(10\-|
D|-5-6-13-(10\-|
comments
We did not receive enough feedback on this tab! Please rate:
print report bad tab
1 2 3 4 5
1 comment total.
0 reply
Lattka23 wrote on July 2 2009, 04:04 pm

whats a.h ?

I want to post or [tab]
guest
You may want to rate the tab now too:
select rating
Please do not post tabs as comments. Select "correction" instead!