Oops, an error
Loading. Please wait.

Hard Rock Hallelujah Bass Tab

version 1
19,209 views 24 this week
no commentswrite comment
1 2 3 4 5
please rate
add to favorites
launch autoscroll
font size
0
reset
guitar tuner
Autoscroll
slow
fast
+/-
esc
set tempo
stop
Help us to improve Ultimate-Guitar.com Take our survey!
×
You may want to use distortion, i dunno. Up to you really

Hard Rock Hallelujah!
G|--------------------------------|
D|--------------------------------|
A|----11-33-----1----11-33-3-1----|
E|--33------1-3----33----------3--|

 Verse
G|---------------------------------------|
D|---------------------------353---------|
A|------------------------------543133---| 
E|--333333333333333333333333----------3--|

G|--------------------------|
D|--------------------------|
A|--------------11--3-------| X2
E|--33--33--11-------1------|
 
 All we need is lightning...
G|---------------------------------------|
D|---------------------------------------|
A|-----------------------------11111111--|
E|--66666666-33333333-11111111-----------|

 As the moon is rising...
G|---------------------------------------|
D|---------------------------------------|
A|-----------------------------55555555--|
E|--66666666-33333333-11111111-----------|

 Rock ’n roll angels bring that hard rock hallelujah...
G|-------------------|
D|-------------------|
A|----------111-111--|
E|--333-111----------|

 Demons and angels all in one have arrived...
G|-------------------|
D|-------------------|
A|--333-666-111------|
E|--------------111--|

 Rock ’n roll angels bring that hard rock hallelujah...
G|-------------------|
D|-------------------|
A|----------111-111--|
E|--333-111----------|

 Demons and angels all in one have arrived...
G|-------------------|
D|-------------------|
A|--333-666-111------|
E|--------------111--|
 
 Verse
G|---------------------------------------|
D|---------------------------353---------|
A|------------------------------543133---|
E|--333333333333333333333333----------3--|

G|--------------------------|
D|--------------------------|
A|--------------11--3-------| X2
E|--33--33--11-------1------|

 All we need is lightning...
G|---------------------------------------|
D|---------------------------------------|
A|-----------------------------11111111--|
E|--66666666-33333333-11111111-----------|

 As the moon is rising...
G|---------------------------------------|
D|---------------------------------------|
A|-----------------------------55555555--|
E|--66666666-33333333-11111111-----------|
 
 Rock ’n roll angels bring that hard rock hallelujah...
G|-------------------|
D|-------------------|
A|----------111-111--|
E|--333-111----------|

 Demons and angels all in one have arrived...
G|-------------------|
D|-------------------|
A|--333-666-111------|
E|--------------111--|

 Rock ’n roll angels bring that hard rock hallelujah...
G|-------------------|
D|-------------------|
A|----------111-111--|
E|--333-111----------|

 Demons and angels all in one have arrived...
G|-------------------|   |-----|
D|-------------------|   |-----| 
A|--333-666-111------|   |--5--| (End On)
E|--------------111--|   |-----|

(2:02)
G|----------------------------------------|
D|----------------------------------------|
A|-----------11111111-33333333------------|
E|--33333333-------------------1111-3333--|

G|-----------------------------------------|
D|-----------------------------------------|
A|-----------11111111-33333333-55555555....|
E|--33333333-------------------------------|

 Hard Rock Hallelujah!
G|----------------------------|
D|----------------------------|
A|----------1----------3-1----|
E|--33--1-3--------33------3--|

G|------------------------|
D|------------------------|
A|----------1----------5--|
E|--33--1-3--------33-----|
 
 Rock ’n roll angels bring that hard rock hallelujah...
G|-------------------|
D|-------------------|
A|----------111-111--|
E|--333-111----------|

 Demons and angels all in one have arrived...
G|-------------------|
D|-------------------|
A|--333-666-111------|
E|--------------111--|
 
 Rock ’n roll angels bring that hard rock hallelujah...
G|-------------------|
D|-------------------|
A|----------111-111--|
E|--333-111----------|

 Demons and angels all in one have arrived...
G|-------------------|   
D|-------------------|    
A|--333-666-111------|   
E|--------------111--|  
 
 Hard Rock Hallelujah!
G|-----------------------|  
D|-----------------------|    
A|-----11-33-3-1---------|   
E|--33-----------3--1-3--|

And there you go. You may not hear some bass in the song, but it's all there
Suggest correction
Give kudos to tab author, rate the tab!
1 2 3 4 5
comments
print report bad tab
guest
You may want to rate the tab now too:
select rating
Wanna post a correction for this tab? Suggest correction