Oops, an error
Loading. Please wait.

Hard Rock Hallelujah Tab

version 3
version 3
54,791 views 24 this week
10 commentsread comments
1 2 3 4 5
accurate
x 11
add to favorites
launch autoscroll
font size
0
reset
how to read this tab
guitar tuner
Autoscroll
slow
fast
+/-
esc
set tempo
stop
Help us to improve Ultimate-Guitar.com Take our survey!
×
Author
Difficulty
intermediate
Lordi - Hard Rock Hallelujah


Intro:
|-----------------------------|----------------------------|
|-----------------------------|----------------------------|
|-----------------------------|----------------------------|
|--------5-5---7-7----------5-|--------5-5---------7--5----|
|--7-7---3-3---5-5----3-—5--3-|--7-7---3-3---3-3---5--3--5-|
|--5-5----------------1--3----|--5-5---------1-1---------3-|

Pre-Verse:
|-----------------------------|-----------------------------|
|-----------------------------|-----------------------------|
|--5---5-4---4-5-4----7--4--5-|--5---5-4---4-5-4---7--5-----|
|--5—--5-4---4-5-4----7--4—-5-|--5---5-4---4-5-4---7--5-----|
|--3---3-2---2-3-2----5--2--3-|--3---3-2---2-3-2---5--3-----|
|-----------------------------|-----------------------------|

Verse 1:
|--------------------------------------|
|--------------------------------------|
|--------------------------------------|
|-----------------------------7-7------|     (x2
|--7-7------7-7------5-5------5-5--3-5-|
|--5-5------5-5------3-3-----------1-3-|

Pre-Chorus:
|----------------------------------|------------------------------|
|----------------------------------|------------------------------|
|----------------------------------|------------------------------|
|-----2-----------------2----------|--------------------2---------|
|-------0-3-0-2-3---0-0---0-3-0-2~-|------2--2-3-5--------3-2-0---|
|-1-1------------------------------|--3-3-----------1-1---------3-|

|----------------------------------|------------------------------|
|----------------------------------|------------------------------|
|----------------------------------|---------------------9---7-9--|
|-----2-----------------2----------|---------------------9---7-9--|
|-------0-3-0-2-3---0-0---0-3-0-2~-|------2--2-3-5-------7---5-7--|
|-1-1------------------------------|--3-3----------0--------------|

Chorus:
|-----------------------------------------------|
|-----------------------------------------------|
|---------------------------5----7---3----------|      (x2)
|------7------5------3------5----7---3---3---5--|
|------7------5------3--3-3-3----5---1---3---5--|
|--5-5-5--3-3-3--1-1-1-------------------1---3--|
   . .    . .    . .    . . 

Pre-Verse:
|-----------------------------|-----------------------------|
|-----------------------------|-----------------------------|
|--5---5-4---4-5-4----7--4--5-|--5---5-4---4-5-4---7--5-----|
|--5—--5-4---4-5-4----7--4—-5-|--5---5-4---4-5-4---7--5-----|
|--3---3-2---2-3-2----5--2--3-|--3---3-2---2-3-2---5--3-----|
|-----------------------------|-----------------------------|




Pre-Verse:
|-----------------------------|-----------------------------|
|-----------------------------|-----------------------------|
|--5---5-4---4-5-4----7--4--5-|--5---5-4---4-5-4---7--5-----|
|--5—--5-4---4-5-4----7--4—-5-|--5---5-4---4-5-4---7--5-----|
|--3---3-2---2-3-2----5--2--3-|--3---3-2---2-3-2---5--3-----|
|-----------------------------|-----------------------------|

Verse 2:
|---------------------------------------------------|
|---------------------------------------------------| 
|---------------------------------------------------|   (x2)
|--------------------x-x-x-5------------7-7---------|
|--7-7------7-7------x-x-x-3---5-5------5-5---3-5---|
|--5-5------5-5------x-x-x-----3-3------------1-3---|

Pre-Chorus:
|----------------------------------|------------------------------|
|----------------------------------|------------------------------|
|----------------------------------|------------------------------|
|-----2-----------------2----------|--------------------2---------|
|-------0-3-0-2-3---0-0---0-3-0-2~-|------2--2-3-5--------3-2-0---|
|-1-1------------------------------|--3-3-----------1-1---------3-|

|----------------------------------|------------------------------|
|----------------------------------|------------------------------|
|----------------------------------|---------------------9---7-9--|
|-----2-----------------2----------|---------------------9---7-9--|
|-------0-3-0-2-3---0-0---0-3-0-2~-|------2--2-3-5-------7---5-7--|
|-1-1------------------------------|--3-3----------0--------------|



Chorus:
|-----------------------------------------------|
|-----------------------------------------------|
|---------------------------5----7---3----------|      (x2)
|------7------5------3------5----7---3---3---5--|
|------7------5------3--3-3-3----5---1---3---5--|
|--5-5-5--3-3-3--1-1-1-------------------1---3--|
   . .    . .    . .    . . 

Bridge:
|----------------------------------------------------------------------|
|----------------------------------------------------------------------|
|------------------------------(x2)--------------------------------5---|
|--2~-------7~----------[9--------------]--9-/-11-/-12---7---5-7---5---|
|--2~-------7~----------[7--------------]--7-/--9-/-10---7---5-7---3---|
|--0~-------5~----------[0-0-0-0-0-0-0-0]----------------5---3-5-------|
                                   . . . . . . .        

Intro 2:
|-------------------------------|----------------------------|
|-------------------------------|----------------------------|
|-------------------------------|----------------------------|
|----------------------------5--|-------------------7--5-----|
|--7-7-----------------3-—5--3--|--7-7--------------5--3--7--|
|--5-5-----------------1--3-----|--5-5--------------------5--|





|----------------------|
|----------------------|
|----------------------|
|-------------------2--|
|--7-7--------------2--|
|--5-5----------0-0-0--|


Chorus:
|-----------------------------------------------|
|-----------------------------------------------|
|---------------------------5----7---3----------|      (x2)
|------7------5------3------5----7---3---3---5--|
|------7------5------3--3-3-3----5---1---3---5--|
|--5-5-5--3-3-3--1-1-1-------------------1---3--|
   . .    . .    . .    . . 


|---------------------------|-------|
|---------------------------|-------|
|---------------------------|-------|
|--------5-5---------7-5----|-------|
|--7-7---3-3---3-3---5-3-7--|--5-7--|
|--5-5---------1-1-------5--|--3-5--|
Suggest correction
comments
print report bad tab
10 comments total. Showing first comments.
0 reply
Cry_Wolf666 41 wrote on June 3 2006, 06:22 am

hey guys just want to make a correction.
the last power chord in the intro is ment to be power chord 5 on the sixth string (thickest string)

0 reply
alliwant 158 wrote on June 3 2006, 06:32 am

Apart from what you've just pointed out therem this seems OK.

0 reply
Cry_Wolf666 41 wrote on July 8 2006, 08:34 am

again another problem the palm mutes in the bridge are ment to be under the open 6th string (the notes in the brackets)

guest
You may want to rate the tab now too:
select rating
Please do not post tabs as comments. Select "correction" instead!