Oops, an error
Loading. Please wait.

Hard Rock Hallelujah Bass Tab

version 4
4,224 views 12 this week
no commentswrite comment
1 2 3 4 5
accurate
x 3
add to favorites
launch autoscroll
font size
0
reset
guitar tuner
Autoscroll
slow
fast
+/-
esc
set tempo
stop
Help us to improve Ultimate-Guitar.com Take our survey!
×
Author
Difficulty
intermediate
Tunning:

F
C
G
D

Intro:

|-----------------------------|-----------------------------|
|-----------------------------|-----------------------------|
|-0-0----3-3----5-5---------3-|-0-0----3-3-----------6--5-3-|
|----------------------1--3---|---------------1-1-----------|

---

|--------------------------------------------------------------|
|--------------------------------------------------------------|
|-0-0-0-0-0-0-0-0-0-0-0-0---0-0-0-0-0-0-0-0-0-0-0-0----------2-|
|-------------------------0-------------------------1---3------|

|------------------------------------------------------------------|
|------------------------------------------------------------------|
|-0-0-0-0-0-0-0-0-0-0-0-0---0-0-0-0-0-0-0-0-0-0-0-0-3-2-0-5----3---|
|-------------------------0----------------------------------------|


---

|--------------------------------|--------------------------------|
|--------------------------------|--------------------------------|
|-0-0----0-0-----------5-5-------|------------0-2-3-0-0-0-0-3-0-2-|
|---------------3-3----------1-3-|-1-1-1-1-1----------------------|
        

       First                               Second Time
|-------------------------------|---------------------------------|
|-------------------------------|---------------------------------|
|---------2-3-5---------3-2-0---|---------2-3-5-------------------|
|-3-3-3-3-------1-1-1-1-------3-|-3-3-3-3-------0-0-0-0-0-0-0-0-0-|


Chorus:

|------------------------------------------------------------------|
|------------------------------------------------------------------|
|-0-0-0-0-----------------3-3-3-3-5-5-5-5-1-1-1-1------------------|
|---------3-3-3-3-1-1-1-1-------------------------1-1-1-1-3-3-3-3-3|

---

|-------------------------------------------------------|
|-------------------------------------------------------|
|-0-0-0-0-0-0-0-0-0-0-0-0---0-0-0-0-0-0-0-0-0-0-0-0-5-3-|
|-------------------------0-----------------------------|

---

|--------------------------------|--------------------------------|
|--------------------------------|--------------------------------|
|-0-0----0-0-----------5-5-------|------------0-2-3-0-0-0-0-3-0-2-|
|---------------3-3----------1-3-|-1-1-1-1-1----------------------|
        

       First                               Second Time
|-------------------------------|---------------------------------|
|-------------------------------|---------------------------------|
|---------2-3-5---------3-2-0---|---------2-3-5-------------------|
|-3-3-3-3-------1-1-1-1-------3-|-3-3-3-3-------0-0-0-0-0-0-0-0-0-|

Chorus:
                                                             2x
|------------------------------------------------------------------|---|
|------------------------------------------------------------------|---|
|-0-0-0-0-----------------3-3-3-3-5-5-5-5-1-1-1-1------------------|---|
|---------3-3-3-3-1-1-1-1-------------------------1-1-1-1-3-3-3-3-3|-0-|


|-----------------|-------------------|-----------------|-----------|
|-----------------|-------------------|-----------------|-----------|
|-----------------|-------------------|-----------------|-----------|
|-0-2-5-0-2--0--2-|-0-2-5-0-2--0--2-5-|-0-2-5-0-2--0--2-|-0-2-5-0-2-|


|----------------|-------------------|----------------|---------|
|----------------|-------------------|----------------|---------|
|----3-----------|-----3-----------3-|----3-----------|-5-----3-|
|3-5---3-5--3--5-|-3-5---3-5--3--5---|3-5---3-5--3--5-|---------|


|---------------------------------------|-----------------------------------|
|---------------------------------------|-----------------------------------|
|-0(8x)--3(8x)--5(8x)-------------------|-----------------------------------|
|------------------------1-1-1-1-3-3-3-3|-5(8x)--3(8x)--2(8x)--0(8x)--0(8x)-|

|----------------|----------------|
|----------------|----------------|
|-/7---/9---/10--|---7\5-7---10---|
|----0----0------|-0--------------|


|-----|--------|-----|--------|-----|--------|-----|-----|---|
|-----|--------|-----|--------|-----|--------|-----|-----|---|
|-0-0-|------3-|-0-0-|-6--5-3-|-0-0-|------3-|-0-0-|-----|---|
|-----|-1---3--|-----|--------|-----|-1--3---|-----|-0-0-|-0-|

Chorus:
                                                             5x
|------------------------------------------------------------------|
|------------------------------------------------------------------|
|-0-0-0-0-----------------3-3-3-3-5-5-5-5-1-1-1-1------------------|
|---------3-3-3-3-1-1-1-1-------------------------1-1-1-1-3-3-3-3-3|

Final:


|-----------------------------|-----------------------------|-----------------|
|-----------------------------|-----------------------------|-----------------|
|-0-0----3-3----5-5---------3-|-0-0----3-3-----------6--5-3-|----3------------|
|----------------------1--3---|---------------1-1-----------|3-5---3-5--3--5\-|
Suggest correction
Give kudos to tab author, rate the tab!
1 2 3 4 5
comments
print report bad tab
guest
You may want to rate the tab now too:
select rating
Please do not post tabs as comments. Select "correction" instead!