Oops, an error
Loading. Please wait.

Hate At First Sight Tab

version 1
version 1

Whole song

Interactive

3,202 views 2 this week
2 commentsread comments
1 2 3 4 5
please rate
add to favorites
launch autoscroll
font size
0
reset
how to read this tab
guitar tuner
Tab Pro tools
  • play this tab
  • loop segment
  • change instrument
  • show fretboard
  • metronome
×
Best way to learn
"Hate At First Sight"
Autoscroll
slow
fast
+/-
esc
set tempo
stop
Contributor
Song: Hate At First Sight
Band: Lordi
Tabbed by: unspeakable.elvis@gmail.com

Legend:
.       palm mute
h       hammer on
p       pull off
/       slide up to note
\       slide down from note
16\12   slide from 16th fret to 12th fret
7b9     bend 7th fret major second up
9r7     release previous bend
x       dead note
~       vibrato
7b9r7p5 bend 7th fret up, then release bend and pull off to 5th fret.


Standard tuning


Intro Part A
~~~~~~~~~~~~

|-------------10-------10-|-7-----10b12r10----9~~\--|
|-------7--8-----7--8-----|-------------------------|
|-------------------------|-------------------------|
|-------------------------|-------------------------|
|-------------------------|-------------------------|
|-------------------------|-------------------------|
|                         |                         |
|                         |                         |
|-------------------------|-------------------------|
|-------------------------|-------------3-----------|
|-4--4--------------------|-------------2-----2-----|
|-4--4--------------------|-5--5--------0-----2-----|
|-2--2--------------------|-5--5--------------0-----|
|-------------------------|-3--3--------------------|


|-------------10-------10-|-7-----9-----10----9~~\--|
|-------7--8-----7--8-----|-------------------------|
|-------------------------|-------------------------|
|-------------------------|-------------------------|
|-------------------------|-------------------------|
|-------------------------|-------------------------|
|                         |                         |
|                         |                         |
|-------------------------|-------------------------|
|-------------------------|-------------3-----------|
|-4--4--------------------|-------------2-----2-----|
|-4--4--------------------|-5--5--------0-----2-----|
|-2--2--------------------|-5--5--------------0-----|
|-------------------------|-3--3--------------------|



Intro Part B
~~~~~~~~~~~~

|-------------10-------10-|-7-----10b12r10----9~~\--|
|-------7--8-----7--8-----|-------------------------|
|-------------------------|-------------------------|
|-------------------------|-------------------------|
|-------------------------|-------------------------|
|-------------------------|-------------------------|
|                         |                         |
|                         |                         |
|-------------------------|-------------------------|
|-------------------------|-------------3-----------|
|-4--4--------------------|-------------2-----2-----|
|-4--4--------------------|-5--5--------0-----2-----|
|-2--2--2--2--2--2--2--2--|-5--5--------------0-----|
|-------------------------|-3--3--3--3--------------|
        .  .  .  .  .  .          .  .


|-------------10-------10-|-7-----9-----10----9~~---|
|-------7--8-----7--8-----|-------------------------|
|-------------------------|-------------------------|
|-------------------------|-------------------------|
|-------------------------|-------------------------|
|-------------------------|-------------------------|
|                         |                         |
|                         |                         |
|-------------------------|-------------------------|
|-------------------------|-------------3-----------|
|-4--4--------------------|-------------2-----2-----|
|-4--4--------------------|-5--5--------0-----2-----|
|-2--2--2--2--2--2--2--2--|-5--5--------------0-----|
|-------------------------|-3--3--3--3--------------|
        .  .  .  .  .  .          .  .


Intro Part C
~~~~~~~~~~~~

|-9b10----r9p7h9-------7p5|h7~~~--------------------|
|-------------------------|-------------------------|
|-------------------------|-------------------------|
|-------------------------|-------------------------|
|-------------------------|-------------------------|
|-------------------------|-------------------------|
|                         |                         |
|                         |                         |
|-------------------------|-------------------------|
|-------------------------|-------------------------|
|-4-----------------------|-------------------------|
|-4-----------------------|-------------------------|
|-2-----------------------|-------------------------|
|-------------------------|-------------------------|



Verse 1 (Play x2)
~~~~~~~
          "it's lovely to see you..."
|-------------------------|-------------------------|
|----------3--------------|-------------------------|
|-------4-----------------|-------------------------|
|----4--------------------|-------------------------|
|-2-----------------------|-------------------------|
|-------------------------|-------------------------|

 "fall off the stairs..."
|-------------------------|-------------------------|
|-------------------------|-------------------------|
|-------2-----------------|-------------------2-----|
|----2-----2--------------|-------5--------2--------|
|-0-----------------------|----5-----0--------------|
|-------------------------|-3-----------------------|



Pre-Chorus
~~~~~~~~~~
 "beware in the bed..."
|-------------------------|-------------------------|
|-------------------------|-------------------------|
|-------------------------|-2--2-----2-----2-----2--|
|-5--5-----5-----5-----5--|-2--2-----2-----2-----2--|
|-5--5-----5-----5-----5--|-0--0-----0-----0-----0--|
|-3--3-----3-----3-----3--|-------------------------|


 "you choked me blue..."
|-------------------------|-------------------------|
|-------------------------|-------------------------|
|-4--4-----4-----4-----4--|-------------------------|
|-4--4-----4-----4-----4--|-5-----------------------|
|-2--2-----2-----2-----2--|-5-----------------------|
|-------------------------|-3-----------------------|


 "this love was never alive..."
|-------------------------|-------------------------|-------------------------|
|-------------------------|-------------------------|-------------------------|
|----------4-----2--------|-------------------------|-------------------------|
|-5--------4-----2-----4--|-4-----------------------|-4--4--4--4--4--4--4--4--|
|-5--------2-----0-----4--|-4-----------------------|-4--4--4--4--4--4--4--4--|
|-3--------------------2--|-2-----------------------|-2--2--2--2--2--2--2--2--|



Chorus (Play x2)
~~~~~~
 "it was hate at first sight..."
|-------------------------|-------------------------|
|-------------------------|-------------------------|
|-4--4--4--4--4--4--4--4--|-------------------------|
|-4--4--4--4--4--4--4--4--|-5--5--5--5--5--5--5--5--|
|-2--2--2--2--2--2--2--2--|-5--5--5--5--5--5--5--5--|
|-------------------------|-3--3--3--3--3--3--3--3--|

 "the lady and the tramp..."
|-------------------------|-------------------------|
|-------------------------|-------------3--3--------|
|-------------------------|-------------2--2--2--2--|
|-7--7--7--7--7--7--7--7--|-5--5--5--5--0--0--2--2--|
|-7--7--7--7--7--7--7--7--|-5--5--5--5--------0--0--|
|-5--5--5--5--5--5--5--5--|-3--3--3--3--------------|


Back to Intro Part B, after which:


Verse 2 (Play x2)
~~~~~~~
|-7~~~--------------------|-------------------------|
|-------------------------|-------------------------| Leftover
|-------------------------|-------------------------| lead bit
|-------------------------|-------------------------| directly after
|-------------------------|-------------------------| Intro Part B
|-------------------------|-------------------------|
|                         |                         |
|      "your scent's fascinating..."                |
|-------------------------|-------------------------|
|-------------------------|-------------------------|
|-4-----------------------|----------------------4/-|
|-------------------------|-------------------------|
|-2-----------------------|----------------------2/-|
|-------------------------|-------------------------|

 "for maggots and worms..."
|-------------------------|-------------------------|
|-------------------------|-------------------------|
|-6-----------------------|-------------------6\----|
|-------------------------|-5--------7--------------|
|-4-----------------------|-------------------4\----|
|-------------------------|-3--------5--------------|


Then back to Pre-Chorus, then Chorus, after which:



Intro A Rhythm (Play x2)
~~~~~~~~~~~~~~
"squalling..."                        "squalling..."
|-------------------------|-------------------------|
|-------------------------|-------------3-----------|
|-4--4--------------------|-------------2-----2-----|
|-4--4--------------------|-5--5--------0-----2-----|
|-2--2--------------------|-5--5--------------0-----|
|-------------------------|-3--3--------------------|



Guitar Solo
~~~~~~~~~~~

|----------------------------------------------------------|
|-13b15~~------15r13--10--13b15~~--15r13p10h13---13b15~~---|
|----------------------------------------------------------|
|----------------------------------------------------------|
|----------------------------------------------------------|
|----------------------------------------------------------|


|-13b15r13--12--13--15--15b17r15--13--12---------------|
|-----------------------------------------15--13--10~~-|
|------------------------------------------------------|
|------------------------------------------------------|
|------------------------------------------------------|
|------------------------------------------------------|


|-----------------------------------------------------|
|-------------------11-----------------------13-------|
|-----------10--12-------------------12--14-----------|
|-10-12-14-----------------12-14-15-------------------|
|-----------------------------------------------------|
|-----------------------------------------------------|


|--------------------------------------------------------|
|---------------------------------15b17r15--13--16b18~~~-|
|-----------14--15--17b19r17--15-------------------------|
|-14-15-17-----------------------------------------------|
|--------------------------------------------------------|
|--------------------------------------------------------|



Guitar Solo Rhythm (Play x2)
~~~~~~~~~~~~~~~~~~

|-------------------------|-------------------------|
|-3-----------------------|-------------------------|
|-2-----------------------|-3-----------------------|
|-0-----0--0--0--0--0--0--|-3-----------------------|
|-------------------------|-1-----1--1--1--1--1--1--|
|-------------------------|-------------------------|
        .  .  .  .  .  .          .  .  .  .  .  . 

|-------------------------|-------------------------|
|-------------------------|-------------------------|
|-5-----------------------|-3-----------------------|
|-5-----------------------|-3-----------------5-----|
|-3-----3--3--3--3--3--3--|-1-----1--1--3-----3-----|
|-------------------------|-------------1-----------|
        .  .  .  .  .  .          .  .


Keyboard Solo - tabbed for guitar :)
~~~~~~~~~~~~~

|-----------------------------------13-15-16-13h15----|
|-16b18---16--13--16--16b18------16-------------------|
|-----------------------------------------------------|
|-----------------------------------------------------|
|-----------------------------------------------------|
|-----------------------------------------------------|


|----15-16-18----18b20r18--16--15----------|
|-16----------16-------------------18--16--|
|------------------------------------------|
|------------------------------------------|
|------------------------------------------|
|------------------------------------------|


|-20-18-16----16-13-------13---------------------------|
|----------18-------16-13----16-13----13---------------|
|----------------------------------13----13------------|
|-------------------------------------------15-13------|
|-------------------------------------------------8----|
|------------------------------------------------------|


|----------------15-16-18----11-13-15-----------------------|
|------------------------------------------------------13---|
|-10-/12b13----------------------------12-13-15--13-15------|
|-----------------------------------------------------------|
|-----------------------------------------------------------|
|-----------------------------------------------------------|


|-20h21p20-18------------------------------------------------|
|-------------21-20-19h21p19\--15----------------------------|
|----------------------------------14h16p14------------------|
|-------------------------------------------16---12\---------|
|------------------------------------------------------------|
|------------------------------------------------------------|



Keyboard Solo Rhythm (Play x2)
~~~~~~~~~~~~~~~~~~~~

|-------------------------|-------------------------|
|-------------------------|-------------------------|
|-------------------------|-6-----------------------|
|-3-----------------------|-6-----------------------|
|-3-----------------------|-4-----4--4--4--4--4--4--|
|-1-----1--1--1--1--1--1--|-------------------------|
        .  .  .  .  .  .          .  .  .  .  .  .

|-------------------------|-------------------------|
|-------------------------|-------------------------|
|-3-----------------------|-------------3-----------|
|-1-----1--1--1--1--1--1--|-------------1-----1--1--|
|-------------------------|-6-----------------------|
|-------------------------|-4-----4--4--------------|
  ^     .  .  .  .  .  .          .  .        .  .
 weird position is to facilitate 
 fast chord change between Eb5, Ab5, F5


After Keyboard Solo
~~~~~~~~~~~~~~~~~~~

|-------------------------|-------------------------|
|-3-------3-------3-------|-3--------3-----3--------|
|-2-------2-------2-------|-2--------2-----2--------|
|-0-------0-------0-------|-0--------0-----0--------|
|-------------------------|-------------------------|
|-------------------------|-------------------------|


Back to Chorus, after which


Chorus Modulated Up (Play x2)
~~~~~~~~~~~~~~~~~~~

|-------------------------|-------------------------|
|-3--3--3--3--3--3--3--3--|-------------------------|
|-2--2--2--2--2--2--2--2--|-3--3--3--3--3--3--3--3--|
|-0--0--0--0--0--0--0--0--|-3--3--3--3--3--3--3--3--|
|-------------------------|-1--1--1--1--1--1--1--1--|
|-------------------------|-------------------------|


|-------------------------|-------------------------|
|-------------------------|-------------------------|
|-5--5--5--5--5--5--5--5--|-3--3--3--3--------------|
|-5--5--5--5--5--5--5--5--|-3--3--3--3--------5--5--|
|-3--3--3--3--3--3--3--3--|-1--1--1--1--3--3--3--3--|
|-------------------------|-------------1--1--------|



Lead parts over modulated chorus
~~~~~~~~~~~~~~~~~~~~~~~~~~~~~~~~

Difficult to hear all these bits; you could also just mess around
in F major if you like. This is sort of what he plays, but not exactly.

|------------------------------------|
|-13b15---15r13-10-13b15---15r13-----|
|--------------------------------12--|
|------------------------------------|
|------------------------------------|
|------------------------------------|

|-------------------------------------------|
|--------------------13---------------------|
|-----10--12--12b13------12b13r12----12-13--|
|-12------------------------------12--------|
|-------------------------------------------|
|-------------------------------------------|

|-13p12-13-12-10----13-12-10----13-12-10----13-12-10----13-12-10----12----12----|
|----------------13----------13----------13----------13----------13----15----15-|
|-------------------------------------------------------------------------------|
|-------------------------------------------------------------------------------|
|-------------------------------------------------------------------------------|
|-------------------------------------------------------------------------------|


|-13-12-10----13-12-10-----13b15--15r13--10--------10---------------12-13-15b17---|
|----------13----------13--------------------13b15----15r13---13h15---------------|
|---------------------------------------------------------------------------------|
|---------------------------------------------------------------------------------|
|---------------------------------------------------------------------------------|
|---------------------------------------------------------------------------------|



Intro/Outro
~~~~~~~~~~~
|-------------13-------13-|-10----13b15r13----12~~\-|
|-------10-11----10-11----|-------------------------|
|-------------------------|-------------------------|
|-------------------------|-------------------------|
|-------------------------|-------------------------|
|-------------------------|-------------------------|
|                         |                         |
|                         |                         | 
|-------------------------|-------------------------|
|-------------------------|-------------------------| Repeat this
|-7--7--------------------|-3--3--------------------| rhythm figure 
|-7--7--------------------|-3--3--------------5-----| for the rest of
|-5--5--5--5--5--5--5--5--|-1--1--1--1--3-----3-----| outro lead bits
|-------------------------|-------------1-----------|
        .  .  .  .  .  .          .  .


|-------------13-------13-|-10----12----13----12~~\-|
|-------10-11----10-11----|-------------------------|
|-------------------------|-------------------------|
|-------------------------|-------------------------|
|-------------------------|-------------------------|
|-------------------------|-------------------------|


|-------------13-------13-|-10----13b15r13----12~~\-|
|-------10-11----10-11----|-------------------------|
|-------------------------|-------------------------|
|-------------------------|-------------------------|
|-------------------------|-------------------------|
|-------------------------|-------------------------|


|-------------13-------13-|-10----12----13----12----|
|-------10-11----10-11----|-------------------------|
|-------------------------|-------------------------|
|-------------------------|-------------------------|
|-------------------------|-------------------------|
|-------------------------|-------------------------|


|-12b13-------------------|
|-------------------------|
|-------------------------|
|-------------------------|
|-------------------------|
|-------------------------|
|                         |
|                         |
|-------------------------|
|-------------------------|
|-7-----------------------|
|-7-----------------------|
|-5-----------------------|
|-------------------------|

End!
comments
We did not receive enough feedback on this tab! Please rate:
print report bad tab
1 2 3 4 5
2 comments total.
+1 reply
Massiii wrote on February 18 2010, 01:02 pm

Everything sounds right for me in this tab.
A lot of fun to play and I thank you for uploading and your work of this tab!

0 reply
Deathro wrote on May 23 2010, 06:56 pm

GREAT JOB!!!!! 100% RIGHT 5 STARS!!!!!

I want to post or [tab]
guest
You may want to rate the tab now too:
select rating
Please do not post tabs as comments. Select "correction" instead!