Oops, an error
Loading. Please wait.

Missing Miss Charlene Bass Tab

257 views 1 this week
no commentswrite comment
1 2 3 4 5
excellent!
x 3
add to favorites
launch autoscroll
font size
0
reset
guitar tuner
Autoscroll
slow
fast
+/-
esc
set tempo
stop
Help us to improve Ultimate-Guitar.com Take our survey!
×
Author
Difficulty
AnduNeedle 6,419
intermediate
-----------------------------------------------------------------------------
                             Missing Miss Charlene - Lordi
-----------------------------------------------------------------------------
Tabbed by: Andu Needle
E-mail: sulfur_in_my_lungs@yahoo.com

Intro:

G|---------------0---------------------------------------------------|
D|-2----0------3---2-----2----0--------------------------------------|
A|---00---0000-------000---00---00-----7-3-0---2-5-------------------|
E|---------------------------------5-6-------3-----------------------|(x2)

Verse:

G|-------------------------------------------------------------------|
D|-------------------------------------------------------------------|
A|-00000000(x2)-------------------3-00000000(x2)-------------------1-|
E|-------------11111111-11-3~-0-3----------------11111111-11-3-0-3---|

After that 1, you go straight into the pre-chorus!

Pre-chorus:

G|-------------------------------------------------------------------|
D|-------------------------------------------------------------------|
A|-3~------------------------------------------------33-55-77~-------|
E|----4~-6~-666-666-88-86-66-44-66--5~-1~-3~-333-333-----------------|

Chorus:

G|-------------------------------------------------------------------|
D|-------------------------------------------------------------------|
A|-------------------------------------55555555-55555555-------------|
E|-55555555-55555533-11111111-11111100-------------------55-3~-11-3~-|(x2)

Post chorus:

G|---------------0---------------------------------------------------|
D|-2----0------3---2-----2----0--------------------------------------|
A|---00---0000-------000---00---00-----7-3-0---2-5-------------------|
E|---------------------------------5-6-------3-----------------------|(x2)

Verse 2 like the first!
Pre chorus 2 like the first!
Chorus 2 like the first, but the second part of it has some ending notes. It goes like this!

G|--------------------------------------------------------------------------|
D|--------------------------------------------------------------------------|
A|-------------------------------------55555555-55555555-------------5~--777|
E|-55555555-55555533-11111111-11111100-------------------55-3~-11-3~--------|

Solo(not sure about that F#):

G|-------------------------------------------------------------------|
D|-------------------------------------------------------------------|
A|-5-55--2-22------5-55-5--5-55-2-22--------5~-----------------------|
E|------------2-22-------------------2-22-2--------------------------|

The break down:

The part with "no she`s not there"

G|-------------------------------------------------------------------|
D|-------------------------4-----4-----------------------------------|
A|---------3~-----5~-----2-----2-------------------------------------|
E|-5~----3------3------1-----1---------------------------------------|

Last chorus:

G|--------------------------------------------------------------------|
D|--------------------------------------------------------------------|
A|--------------------------------------------------------------------|
E|-77777777-77777755-33333333-33333322-00000000-00000000-77-5~-33-5~--|

G|--------------------------------------------------------------------|
D|--------------------------------------------------------------------|
A|--------------------------------------------------------------------|
E|-77777777-77777755-33333333-33333322-00000000-00000000-77-5~-3-3----|

Ending:

G|---------------0---------------------------------------------------|
D|-2----0------3---2-----2----0--------------------------------------|
A|---00---0000-------000---00---00-----7-3-0---2-5-------------------|
E|---------------------------------5-6-------3-----------------------|(x3)

G|---------------0---------------------------------------------------|
D|-2----0------3---2-----2----0--------------------------------------|
A|---00---0000-------000---00---00-----------------------------------|
E|---------------------------------5-6~------------------------------|
Suggest correction
What's this?
You can suggest a correction to this tab. Community and Mods will review your correction and vote to approve or reject it.
comments
We did not receive enough feedback on this tab! Please rate:
print report bad tab
1 2 3 4 5
guest
You may want to rate the tab now too:
select rating
Please do not post tabs as comments. Select "correction" instead!