Oops, an error
Loading. Please wait.

The Deadite Girls Gone Wild Bass Tab

298 views 1 this week
no commentswrite comment
1 2 3 4 5
1 last vote to show rating
add to favorites
launch autoscroll
font size
0
reset
guitar tuner
Autoscroll
slow
fast
+/-
esc
set tempo
stop
Help us to improve Ultimate-Guitar.com Take our survey!
×
Author
Difficulty
Tuning
intermediate
D G C F A D
-----------------------------------------------------------------------------
                             The Deadite Girls Gone Wild - Lordi
-----------------------------------------------------------------------------
Tabbed by: Andu Needle
E-mail: sulfur_in_my_lungs@yahoo.com

Intro:

F|-----------------------------------------------|
C|-----------------------------------------------|
G|-----------------------------------------------|
D|-3-00-5-00-3-00-5-00-3030----------------------|(x3)


F|-----------------------------------------------|
C|-----------------------------------------------|
G|-----------------------------------------------|
D|-3-00-5-00-3-00-5-00-303~----------------------|

Verse:

F|-----------------------------------------------|
C|-----------------------------------------------|
G|-----------------------------------------------|
D|-00000000-0000303~-----------------------------|(x2)


F|-----------------------------------------------|
C|-----------------------------------------------|
G|-0~--0~----------------------------------------|
D|--------3-00-5-00-3-00-5-00-303~---------------|

You play these two parts twice. After the second part, before the chorus, it goes like this:


F|-----------------------------------------------|
C|-----------------------------------------------|
G|-0~--0~----------------------------------------|
D|-----------------------------------------------|

Chorus:

F|-----------------------------------------------|
C|-----------------------------------------------|
G|-------------------55555555-33333333-----------|
D|-00000000-33333333-----------------------------|(x2)

After that, it`s that part with "You gotta pull out!" There is a stop. It goes something like this:

F|-----------------------------------------------|
C|-----------------------------------------------|
G|-------------------33333333-55555555-----------|
D|-0~-0000-33333333------------------------------|

F|-----------------------------------------------|
C|----------55555555-----------------------------|
G|-77777777----------55555555-33333333-----------|
D|-----------------------------------------------|

The main riff again:

F|-----------------------------------------------|
C|-----------------------------------------------|
G|-----------------------------------------------|
D|-3-00-5-00-3-00-5-00-3030----------------------|


F|-----------------------------------------------|
C|-----------------------------------------------|
G|-----------------------------------------------|
D|-3-00-5-00-3-00-5-00-303~----------------------|

The second verse is the same as the first!
The second chorus is the same as the first!

Solo:

F|-----------------------------------------------|
C|-----------------------------------------------|
G|-5-7-55-3-5------------------------------------|
D|-----------------------------------------------|(x4)

Bridge:

F|-----------------------------------------------|
C|-----------------------------------------------|
G|-33333333(x2)-5-7-55-3-5-----------------------|
D|-----------------------------------------------|(x2)

F|-----------------------------------------------|
C|-----------------------------------------------|
G|-00000000-33333333-----------------------------|
D|-----------------------------------------------|(x2)

F|-----------------------------------------------|
C|-----------------------------------------------|
G|-2~--0~--3~--22222222--------------------------|
D|----------------------3------------------------|

The last chorus is the same as the others!

Ending:

F|-----------------------------------------------|
C|-----------------------------------------------|
G|-5-7-55-3-5-0~----0----------------------------|
D|-----------------------------------------------|

I hope you got the song. The solo rhythm is pretty tricky. Listen it close. Good luck!
Suggest correction
Give kudos to tab author, rate the tab!
1 2 3 4 5
comments
print report bad tab
guest
You may want to rate the tab now too:
select rating
Wanna post a correction for this tab? Suggest correction