Oops, an error
Loading. Please wait.

The Devil Hides Behind Her Smile bass

version 1
version 1

Whole song

Interactive

by Lordi
646 views 1 this week
no commentswrite comment
1 2 3 4 5
1 last vote to show rating
add to favorites
×
Save as Personal and add changes to this tab that will be seen only by you. Learn more ›
×
You can save this tab as Personal to edit and correct it or add notes. All changes will be seen only by you. Learn more »
launch autoscroll
font size
0
reset
guitar tuner
edit
Autoscroll
slow
fast
+/-
esc
set tempo
stop
Author
Song: The Devil Hides Behind Her Smile
Band: Lordi
Tabbed by: unspeakable.elvis@gmail.com

Standard tuning


|---------------------------------|
|----------drums------------------|
|---------------------------------|
|---------------------------------|


"Phantom" Intro
~~~~~~~~~~~~~~~
|---------------------------------|---------------------------------|
|---------------------------------|---------------------------------|
|-2-2-2-2-2-2-2-2-2-2-2-2-2-1-0---|-----------------------------0-1-|
|-------------------------------4-|-3-3-3-3-3-3-3-3-3-3-3-3-3-4-----|
  Play x2

Verse
~~~~~
 "i come home..."
|---------------------------------|---------------------------------|
|---------------------------------|---------------------------------|
|-2-2-2-2-2-2-2-2-0-0-0-0-0-0-0-0-|-------------------------0-0-0-0-|
|---------------------------------|-0-0-0-0-0-0-0-0-3-3-3-3---------|

    "dim lighting, candles burning..."             "have something to hide..."
|---------------------------------|---------------------------------|
|---------------------------------|---------------------------------|
|-2-2-2-2-2-2-2-2-0-0-0-0-0-0-0-0-|-----------------------0---0---2-|
|---------------------------------|-0-0-0-0-0-0-0-0-3-3-------------|

 "she's a bit too nice this evening..."
|---------------------------------|---------------------------------|
|---------------------------------|---------------------------------|
|-2-2-2-2-2-2-2-2-0-0-0-0-0-0-0-0-|-------------------------0-0-0-0-|
|---------------------------------|-0-0-0-0-0-0-0-0-3-3-3-3---------|

 "i'll skin her...                        "find out what's behind that smile..."
|---------------------------------|---------------------------------|
|---------------------------------|---------------------------------|
|-2-2-2-2-2-2-2-2-0-0-0-0-0-0-0-0-|-----------------------0---0-----|
|---------------------------------|-0-0-0-0-0-0-0-0-3-3-------------|


Bridge
~~~~~~
 If you have a 5 string play the notes tabbed on the low string. If you have
 a 4 string then play the notes in parenthesis.

 "it's nothing..."
|---------------------------------|---------------------------------|
|---------------------------------|---------------------------------|
|-3--(3)-(3)--3--(3)-(3)--3--(3)--|-4--(4)-(4)--4--(4)-(4)--4--(4)--|
|---------------------------------|---------------------------------|
|-----1---1-------1---1-------1---|-----2---2-------2---2-------2---|

    "all in my head..."                                "i think the..."
|---------------------------------|---------------------------------|
|-5-----------5--/7-----------7---|---------------------------------|
|---------------------0---0-------|----------------/9-9-9-9-9-9-9-9-|
|-----3---3-----------------------|-2-------------------------------|


Chorus
~~~~~~
 "devil is hiding behind her smile..."
|---------------------------------|---------------------------------|
|---------------------------------|---------------------------------|
|-2-2-2-0-0-0-0---------------0-0-|-2-2-2-0-0-0-0-0-------5-5-5-0-0-|
|---------------2---3-3-3-3-3-----|-----------------3-3-3-----------|

 "darkness disguised..."
|---------------------------------|---------------------------------|
|---------------------------------|---------------------------------|
|-2-2-2-0-0-0-0---------------0-0-|-2-2-2-0-0-0-0-0-----------------|
|---------------2---3-3-3-3-3-----|-----------------3---------------|

Back to Intro, Verse, Bridge, after which

Chorus 2
~~~~~~~~
 "devil is hiding behind her smile..."
|---------------------------------|---------------------------------|
|---------------------------------|---------------------------------|
|-2-2-2-0-0-0-0---------------0-0-|-2-2-2-0-0-0-0-0-------5-5-5-0-0-|
|---------------2---3-3-3-3-3-----|-----------------3-3-3-----------|

 "darkness disguised..."
|---------------------------------|-----------------|
|---------------------------------|-----------------| Straight into
|-2-2-2-0-0-0-0---------------0-0-|-2-2-2-0-0-0-0-0-| Interlude
|---------------2---3-3-3-3-3-----|-----------------|


Interlude
~~~~~~~~~
|---------------------------------|---------------------------------|
|-7-----7-----7---8-----8-----8---|-7-----7-----7---6-----6-----6---| Play 
|---5-5---5-5---5---5-5---5-5---5-|---5-5---5-5---5---4-4---4-4---4-| x2
|---------------------------------|---------------------------------|


|---------5-----------------------|---------4-----------------------|
|---------------------------------|---------------------------------|
|-3---3-------3---3--/7---8---10--|-2---2-----2-----2---2---2-------|
|---------------------------------|----------------------------2--1-|


|---------3-----------------------|---------------------------------|
|---------------------------------|--------/7------/7------/7-------|
|-1---1-----1-----1---1---1---1---|-0-------------------------------|
|---------------------------1---1-|---------------------------------|


|---------------------------------|---------------------------------|
|---------------------------------|---------------------------------|
|---------------------------------|---------------------------------|
|-4-4---4-4---4-4---4-4---4---4---|-6-6---6-6---6-6---6-6---6---6---|

                                     "whao..."       "whao..."
|---------------------------------|---------------------------------|
|-------9-------9---------------9-|---------------------------------|
|---8-9-----8-9-------------8-9---|---------------------------------|
|-7-------7---------------7-------|-------------7\--------------7\--|

  "whao..."       "whao..."         "whao..."       "ooooh..."(?)
|---------------------------------|---------------------------------|
|---------------------------------|---------------------------------|
|---------------------------------|------------------------------2--|
|-------------7\--------------7\--|-------------7\------------------|

Back to Chorus, then Intro until the end.
Suggest correction
Creating personal tab
Creating personal tab
You can edit any tab online and save it as your Personal.

You can edit, replace or remove any tab part or add personal notes – all changes will be seen only by you.

Personal tabs can be accessed anytime from any device, even offline.
Learn more »
Give kudos to tab author, rate the tab!
1 2 3 4 5
comments
print report bad tab
guest
You may want to rate the tab now too:
select rating
Wanna post a correction for this tab? Suggest correction