Oops, an error
Loading. Please wait.

The Riff Bass Tab

version 1
version 1

Whole song

Interactive

2,440 views 6 this week
no commentswrite comment
1 2 3 4 5
1 last vote to show rating
add to favorites
launch autoscroll
font size
0
reset
guitar tuner
Autoscroll
slow
fast
+/-
esc
set tempo
stop
Help us to improve Ultimate-Guitar.com Take our survey!
×
Author
Difficulty
Tuning
intermediate
D G C F A D
-----------------------------------------------------------------------------
                             The Riff - Lordi
-----------------------------------------------------------------------------
Tabbed by: Andu Needle
E-mail: sulfur_in_my_lungs@yahoo.com

Intro:

F|--------------------------------------------------------------------|
C|--------------------------------------------------------------------|
G|-7-------7-------10---10--------------------------------------------|
D|---00000---00000----0-----------------------------------------------|(x4)

Verse:

F|--------------------------------------------------------------------|
C|--------------------------------------------------------------------|
G|--------------33333333(x2)-55555555(x2)-22222222(x2)----------------|
D|-00000000(x2)-------------------------------------------------------|(x2)

Pre chorus:

F|--------------------------------------------------------------------|
C|--------------------------------------------------------------------|
G|-00000000-22222222-33333333-55555555--------------------------------|
D|--------------------------------------------------------------------|

F|--------------------------------------------------------------------|
C|--------------------------------------------------------------------|
G|-00000000-2222-555--------------------------------------------------|
D|--------------------------------------------------------------------|

Chorus:

F|---------------------------------------------------------------------|
C|---------------------------------------------------------------------|
G|-------------------33333333-00000000-55555555(x2)-22222222-22-3-5----|
D|-00000000-33333333---------------------------------------------------|

F|---------------------------------------------------------------------|
C|---------------------------------------------------------------------|
G|-------------------33333333-00000000-55555555(x2)-22222222-2-2-2-----|
D|-00000000-33333333---------------------------------------------------|

Intro again:

F|---------------------------------------------------------------------|
C|---------------------------------------------------------------------|
G|-7-------7-------10---10---------------------------------------------|
D|---00000---00000----0------------------------------------------------|(x2)

Verse 2 is the same as the first!
Pre chorus 2 is the same as the first!
Chorus 2 is the same as the first!
After the second chorus there is the intro played twice!

Bridge:

F|---------------------------------------------------------------------|
C|---------------------------------------------------------------------|
G|-5~(x4)--------------------------------------------------------------|
D|--------0~(x3)-5~----------------------------------------------------|

F|---------------------------------------------------------------------|
C|---------------------------------------------------------------------|
G|-2222-1111-2222-1111-------------------------------------------------|
D|---------------------5555-4444-3333-33333333-------------------------|

"The riff":

F|---------------------------------------------------------------------|
C|---------------------------------------------------------------------|
G|---5-7---------------7----5-7----------------------------------------|
D|-0-----30--0-56-30-0----0-----30-05-05-05----------------------------|

F|---------------------------------------------------------------------|
C|---------------------------------------------------------------------|
G|---5-7---------------7----5-7------10-77-10-77-10--------------------|
D|-0-----30--0-56-30-0----0-----30-0-----------------------------------|

F|---------------------------------------------------------------------|
C|---------------------------------------------------------------------|
G|---5-7---------------7----5-7----------------------------------------|
D|-0-----30--0-56-30-0----0-----30-05-05-05----------------------------|

F|---------------------------------------------------------------------|
C|---------------------------------------------------------------------|
G|---5-7---------------7----5-7------10-77-10-77-10--10-77-10-55-------|
D|-0-----30--0-56-30-0----0-----30-0-----------------------------------|

After the solo you go straight into the chorus. You play it twice!

Ending:

F|---------------------------------------------------------------------|
C|---------------------------------------------------------------------|
G|-7-------7-------10---10---------------------------------------------|
D|---00000---00000----0------------------------------------------------|(x4)
Suggest correction
Give kudos to tab author, rate the tab!
1 2 3 4 5
comments
print report bad tab
guest
You may want to rate the tab now too:
select rating
Wanna post a correction for this tab? Suggest correction