Oops, an error
Loading. Please wait.

This Is Heavy Metal tab

version 3
version 3

Whole song

Interactive

by Lordi
1,106 views 3 this week
no commentswrite comment
1 2 3 4 5
2 more votes to show rating
add to favorites
×
Save as Personal and add changes to this tab that will be seen only by you. Learn more ›
×
You can save this tab as Personal to edit and correct it or add notes. All changes will be seen only by you. Learn more »
launch autoscroll
font size
0
reset
how to read this tab
guitar tuner
edit
Autoscroll
slow
fast
+/-
esc
set tempo
stop
                                     Q    Q     E  Q     E     Q     E  Q    E  E  E   
D||-------|-------|-------|-------|-------------------------|-------------------------|
A||-------|-------|-------|-------|-------------------------|-------------------------|
F||-------|-------|-------|-------|-------------------------|-------------------------|
C||-------|-------|-------|-------|-------------------------|-------------------------|
G||-------|-------|-------|-------|-------------------------|-----------5----4--5--4--|
D||-------|-------|-------|-------|--0----7~----0--6~----0--|--5~----0--3----2--3--2--|


  Q    Q     E  Q     E     Q     E   Q.      Q       Q    Q     E  Q     E   
-------------------------|-------------------------|-------------------------|
-------------------------|-------------------------|-------------------------|
-------------------------|-------------------------|-------------------------|
-------------------------|-----------10------12----|-------------------------|
-------------------------|-----------10------12----|-------------------------|
--0----7~----0--6~----0--|--5~----0---8------10----|--0----7~----0--6~----0--|


  Q     E  Q    E  E  E     Q    Q     E  Q     E     Q     E   Q.      Q     
-------------------------|-------------------------|-------------------------|
-------------------------|-------------------------|-------------------------|
-------------------------|-------------------------|-------------------------|
-------------------------|-------------------------|-----------10------12----|
-----------5----4--5--4--|-------------------------|-----------10------12----|
--5~----0--3----2--3--2--|--0----7~----0--6~----0--|--5~----0---8------10----|


  PM PM PM PM PM PM PM PM    PM PM PM PM PM PM PM PM    PM PM PM PM PM PM PM PM  
  E  E  E  E  E  E  E  E     E  E  E  E  E  E  E  E     E  E  E  E  E  E  E  E   
--------------------------|--------------------------|--------------------------|
--------------------------|--------------------------|--------------------------|
--------------------------|--------------------------|--------------------------|
--------------------------|--------------------------|--7--7--7--7--7--7--7--7--|
--2--2--2--2--2--2--2--2--|--2--2--2--2--2--2--2--2--|--5--5--5--5--5--5--5--5--|
--0--0--0--0--0--0--0--0--|--0--0--0--0--0--0--0--0--|--------------------------|


  PM PM PM                                              PM       PM    PM PM PM PM PM PM PM PM  
  E  E  E  E  Q    Q       W                   H        E  E  E  E     E  E  E  E  E  E  E  E   
------------------------|-------------------|-----------------------|--------------------------|
------------------------|-------------------|-----------------------|--------------------------|
------------------------|-------------------|--------------7--7-----|--------------------------|
--5--5--5--5--5----4----|--2----------------|--L-----------7--7-----|--7--7--7--7--7--7--7--7--|
--3--3--3--3--5----4----|--2----------------|--L--------2--5--5--2--|--5--5--5--5--5--5--5--5--|
--------------3----2----|--0----------------|--L--------0--------0--|--------------------------|


  PM PM PM PM                                                      PM PM    PM       PM PM  
  E  E  E  E  Q    Q       W                   W                   E  E  E  E  E  E  E  E   
------------------------|-------------------|-------------------|--------------------------|
------------------------|-------------------|-------------------|--------------------------|
------------------------|--2----------------|--7----------------|--------------------------|
--5--5--5--5--5----4----|--2----------------|--7----------------|--------5-----4--5--------|
--3--3--3--3--5----4----|--0----------------|--5----------------|--------5-----4--5--------|
--------------3----2----|-------------------|-------------------|--0--0--3--0--2--3--0--0--|


              PM PM                                                                    
  E  E  E  E  E  E  E  E     W                   W                   W                 
--------------------------|-------------------|-------------------|-------------------|
--------------------------|-------------------|-------------------|-------------------|
--------------------------|--2----------------|--7----------------|--5----------------|
--4--5--4--2--------4--5--|--2----------------|--7----------------|--5----------------|
--4--5--4--2--------4--5--|--0----------------|--5----------------|--3----------------|
--2--3--2--0--0--0--2--3--|-------------------|-------------------|-------------------|


  E  E  E  E  H             Q    Q     E  Q     E     Q     E  Q    E  E  E   
-----------------------||--------------------------|-------------------------|
-----------------------||--------------------------|-------------------------|
--4--4--4--------------||*-------------------------|-------------------------|
--4--4--4--------------||*-------------------------|-------------------------|
--2--2--2--------------||--------------------------|-----------5----4--5--4--|
-----------------------||---0----7~----0--6~----0--|--5~----0--3----2--3--2--|


                                                        PM PM PM PM PM PM PM PM  
  Q    Q     E  Q     E     Q     E   Q.      Q         E  E  E  E  E  E  E  E   
-------------------------|--------------------------||--------------------------|
-------------------------|--------------------------||--------------------------|
-------------------------|-------------------------*||--------------------------|
-------------------------|-----------10------12----*||--------------------------|
-------------------------|-----------10------12-----||--2--2--2--2--2--2--2--2--|
--0----7~----0--6~----0--|--5~----0---8------10-----||--0--0--0--0--0--0--0--0--|


  PM PM PM PM PM PM PM PM    PM PM PM PM PM PM PM PM    PM PM PM                                   
  E  E  E  E  E  E  E  E     E  E  E  E  E  E  E  E     E  E  E  E  Q    Q       W                 
--------------------------|--------------------------|------------------------|-------------------|
--------------------------|--------------------------|------------------------|-------------------|
--------------------------|--------------------------|------------------------|-------------------|
--------------------------|--7--7--7--7--7--7--7--7--|--5--5--5--5--5----4----|--2----------------|
--2--2--2--2--2--2--2--2--|--5--5--5--5--5--5--5--5--|--3--3--3--3--5----4----|--2----------------|
--0--0--0--0--0--0--0--0--|--------------------------|--------------3----2----|--0----------------|


           PM       PM    PM PM PM PM PM PM PM PM    PM PM PM PM                                
  H        E  E  E  E     E  E  E  E  E  E  E  E     E  E  E  E  Q    Q       W                 
-----------------------|--------------------------|------------------------|-------------------|
-----------------------|--------------------------|------------------------|-------------------|
--------------7--7-----|--------------------------|------------------------|--2----------------|
--L-----------7--7-----|--7--7--7--7--7--7--7--7--|--5--5--5--5--5----4----|--2----------------|
--L--------2--5--5--2--|--5--5--5--5--5--5--5--5--|--3--3--3--3--5----4----|--0----------------|
--L--------0--------0--|--------------------------|--------------3----2----|-------------------|


                      PM PM    PM       PM PM                PM PM                            
  W                   E  E  E  E  E  E  E  E     E  E  E  E  E  E  E  E     W                 
-------------------|--------------------------|--------------------------|-------------------|
-------------------|--------------------------|--------------------------|-------------------|
--7----------------|--------------------------|--------------------------|--2----------------|
--7----------------|--------5-----4--5--------|--4--5--4--2--------4--5--|--2----------------|
--5----------------|--------5-----4--5--------|--4--5--4--2--------4--5--|--0----------------|
-------------------|--0--0--3--0--2--3--0--0--|--2--3--2--0--0--0--2--3--|-------------------|


  W                   W                   E  E  E  E  H             Q    Q     E  Q     E   
-------------------|-------------------|-----------------------||--------------------------|
-------------------|-------------------|-----------------------||--------------------------|
--7----------------|--5----------------|--4--4--4--------------||*-------------------------|
--7----------------|--5----------------|--4--4--4--------------||*-------------------------|
--5----------------|--3----------------|--2--2--2--------------||--------------------------|
-------------------|-------------------|-----------------------||---0----7~----0--6~----0--|


  Q     E  Q    E  E  E     Q    Q     E  Q     E     Q     E   Q.      Q       
-------------------------|-------------------------|--------------------------||
-------------------------|-------------------------|--------------------------||
-------------------------|-------------------------|-------------------------*||
-------------------------|-------------------------|-----------10------12----*||
-----------5----4--5--4--|-------------------------|-----------10------12-----||
--5~----0--3----2--3--2--|--0----7~----0--6~----0--|--5~----0---8------10-----||


        PM PM PM PM PM PM    PM PM PM                  PM PM    PM       PM PM  
  E  E  E  E  E  E  E  E     E  E  E  Q.     Q         E  E  E  E  E  E  E  E   
--------------------------|-----------------------||---------------------------|
--------------------------|-----------------------||---------------------------|
--4--4--------------------|-----------5------7----||*--------------------------|
--4--4--4--4--4--4--4--4--|--4--4--4--5------7----||*--------5-----4--5--------|
--2--2--2--2--2--2--2--2--|--2--2--2--3------5----||---------5-----4--5--------|
--------------------------|-----------------------||---0--0--3--0--2--3--0--0--|


              PM PM                                      
  E  E  E  E  E  E  E  E   4x  E  E  E   Q.       Q      
---------------------------||-----------20-------22-----|
---------------------------||---------------------------|
--------------------------*||-----------17~------19~----|
--4--5--4--2--------4--5--*||--4--5--4------------------|
--4--5--4--2--------4--5---||--4--5--4------------------|
--2--3--2--0--0--0--2--3---||---------------------------|


   S    S  S  S  S  S  S    S  S  S  S  S  S    S  S  S  
--16b~-12-15-15-14-12-16b~-12-15-15-14-12-16b~-12-15-15-|
--------------------------------------------------------|
--------------------------------------------------------|
--------------------------------------------------------|
--------------------------------------------------------|
--------------------------------------------------------|


   S   S  S    S  S  S  S  S  S  S   S  S   S  S   S  S  
--14p-12-16b~-12-15-15-14-12-15-15p-14-14p-12-12h-14-14-|
--------------------------------------------------------|
--------------------------------------------------------|
--------------------------------------------------------|
--------------------------------------------------------|
--------------------------------------------------------|


   S   S  S   S  S   S  S   S  S   S  S   S  S   S  S   S  
--14p-12-14p-12-14b-12-14b-12-14b-12-14b-12-14b-12-14b-12-|
----------------------------------------------------------|
----------------------------------------------------------|
----------------------------------------------------------|
----------------------------------------------------------|
----------------------------------------------------------|


   S   S  S  S  S  S  S  S  S  S  S S    Q      
--14b-12-10-12-10----10------------------------|
------------------13----13-10-13-10-8s-/10~----|
-----------------------------------------------|
-----------------------------------------------|
-----------------------------------------------|
-----------------------------------------------|


              T     T     T     T     T     T     T     T     T     T     T     T     
   E   S   S  T  T  T  T  T  T  T  T  T  T  T  T  T  T  T  T  T  T  T  T  T  T  T  T  
------14p-12-14p-8-12p-8-14p-8-12p-8-14p-8-12p-8-14p-8-12p-8-14p-8-12p-8-14p-8-12p-8-|
-------------------------------------------------------------------------------------|
--/9---------------------------------------------------------------------------------|
-------------------------------------------------------------------------------------|
-------------------------------------------------------------------------------------|
-------------------------------------------------------------------------------------|


   T     T     T     T     T     T     T     T                
   T  T  T  T  T  T  T  T  T  T  T  T  T  T  T  T  H          
--14p-8-12p-8-14p-8-12p-8-14p-8-12p-8-14p-8-12p-8-17b--------|
-------------------------------------------------------------|
-------------------------------------------------------------|
-------------------------------------------------------------|
-------------------------------------------------------------|
-------------------------------------------------------------|


   T  T  T  T  T  T  T  T  T  T  T  T  T  T  T  T  T  T  T  T  T  T  T  T  T  T  T  T  T  T  T  T
--22-22-22-22-22-22-22-20-20-20-20-20-20-20-20-19-19-19-19-19-19-19-19-17-17-17-17-17-17-17-17-17s|
--------------------------------------------------------------------------------------------------|
--------------------------------------------------------------------------------------------------|
--------------------------------------------------------------------------------------------------|
--------------------------------------------------------------------------------------------------|
--------------------------------------------------------------------------------------------------|


   W                                                                              
--12~----------------|-------------------|-------------------|-------------------|
---------------------|-------------------|-------------------|-------------------|
---------------------|-------------------|-------------------|-------------------|
---------------------|-------------------|-------------------|-------------------|
---------------------|-------------------|-------------------|-------------------|
---------------------|-------------------|-------------------|-------------------|


                                                                 PM PM    PM PM    PM  
                                                              E  E  E  E  E  E  E  E   
-------------------|-------------------|-------------------|--------------------------|
-------------------|-------------------|-------------------|--------------------------|
-------------------|-------------------|-------------------|--4--------4--------4-----|
-------------------|-------------------|-------------------|--4--------4--------4-----|
-------------------|-------------------|-------------------|--2--2--2--2--2--2--2--2--|
-------------------|-------------------|-------------------|--------------------------|


  PM    PM                                                                    
  E  E  E  Q.     Q         Q    Q     E  Q     E     Q     E  Q    E  E  E   
-----------------------||--------------------------|-------------------------|
-----------------------||--------------------------|-------------------------|
-----4-----5------7----||*-------------------------|-------------------------|
-----4-----5------7----||*-------------------------|-------------------------|
--2--2--2--3------5----||--------------------------|-----------5----4--5--4--|
-----------------------||---0----7~----0--6~----0--|--5~----0--3----2--3--2--|


  Q    Q     E  Q     E     Q     E   Q.      Q         Q     E   Q.      Q     
-------------------------|--------------------------||-------------------------|
-------------------------|--------------------------||-------------------------|
-------------------------|-------------------------*||-------------------------|
-------------------------|-----------10------12----*||-----------10------12----|
-------------------------|-----------10------12-----||-----------10------12----|
--0----7~----0--6~----0--|--5~----0---8------10-----||--5~----0---8------10----|


    Q    Q     E  Q     E     Q     E  Q    E  E  E     Q    Q     E  Q     E   
|--------------------------|-------------------------|-------------------------|
|--------------------------|-------------------------|-------------------------|
|*-------------------------|-------------------------|-------------------------|
|*-------------------------|-------------------------|-------------------------|
|--------------------------|-----------5----4--5--4--|-------------------------|
|---0----7~----0--6~----0--|--5~----0--3----2--3--2--|--0----7~----0--6~----0--|


  Q     E   Q.      Q         Q    E  Q    E   Q      
--------------------------||------------------------||
--------------------------||------------------------||
-------------------------*||----------5----L\-------||
-----------10------12----*||----------5----L\-------||
-----------10------12-----||----------3----L\-------||
--5~----0---8------10-----||--5----0----------------||

            
            
Suggest correction
Creating personal tab
Creating personal tab
You can edit any tab online and save it as your Personal.

You can edit, replace or remove any tab part or add personal notes – all changes will be seen only by you.

Personal tabs can be accessed anytime from any device, even offline.
Learn more »
Give kudos to tab author, rate the tab!
1 2 3 4 5
comments
print report bad tab
guest
Wanna post a correction for this tab? Suggest correction