Oops, an error
Loading. Please wait.

Wheres The Dragon bass

version 1
version 1

Whole song

Interactive

by Lordi
239 views 1 this week
no commentswrite comment
1 2 3 4 5
3 more votes to show rating
add to favorites
×
Save as Personal and add changes to this tab that will be seen only by you. Learn more ›
×
You can save this tab as Personal to edit and correct it or add notes. All changes will be seen only by you. Learn more »
launch autoscroll
font size
0
reset
guitar tuner
edit
Autoscroll
slow
fast
+/-
esc
set tempo
stop
Author
Difficulty
-----------------------------------------------------------------------------
                             Where's The Dragon - Lordi
-----------------------------------------------------------------------------
Tabbed by: Andu Needle
E-mail: sulfur_in_my_lungs@yahoo.com

Intro:

G|------------------------------------------------------------------|
D|------------------------------------------------------------------|
A|---------------75-------------------570---------------------------|
E|-5777777-57777----75--5777777-57777-------------------------------|(x4)

G|------------------------------------------------------------------|
D|------------------------------------------------------------------|
A|-7~--5~--0--------------------------------------------------------|
E|------------------------------------------------------------------|

Verse:

G|------------------------------------------------------------------|
D|------------------------------------------------------------------|
A|-22222222---------------------------------------------------------|
E|----------333-000-------------------------------------------------|(x4)

Pre chorus:

G|------------------------------------------------------------------|
D|------------------------------------------------------------------|
A|-------------------22222222---------------------------------------|
E|-55555555-44444444----------33333333------------------------------|

G|------------------------------------------------------------------|
D|------------------------------------------------------------------|
A|------------------------------------------------------------------|
E|-55555555-33333333-22-222~----------------------------------------|

Chorus:

G|------------------------------------------------------------------|
D|------------------------------------------------------------------|
A|-22222222-00000000(x2)--------------------------------------------|
E|-----------------------3x3x320------------------------------------|

G|------------------------------------------------------------------|
D|------------------------------------------------------------------|
A|-22222222-00000000(x2)----------------------------5~-4~-----------|
E|-----------------------33333333-22222222-00000000-----------------|

Verse 2 is like the first one!
Pre chorus 2 is like the first one!

Chorus 2:

G|-------------------------------------------------------------------|
D|-------------------------------------------------------------------|
A|-22222222-00000000(x2)---------------------------------------------|
E|-----------------------3x3x320-------------------------------------|

G|-------------------------------------------------------------------|
D|-------------------------------------------------------------------|
A|-22222222-00000000(x2)---------------------------------------------|
E|-----------------------33333333-22222222-00000000------------------|

G|-------------------------------------------------------------------|
D|-------------------------------------------------------------------|
A|----------------------------3~-5~----------------------------------|
E|-33333333-22222222-00000000----------------------------------------|

Solo:

The rhythm is the same as the verse, the notes are different.

G|-------------------------------------------------------------------|
D|-------------------------------------------------------------------|
A|----------333-000--------------------------------------------------|
E|-00000000----------------------------------------------------------|(x4)

G|-------------------------------------------------------------------|
D|-------------------------------------------------------------------|
A|-55555555-44444444-33333333-22222222-------------------------------|
E|-------------------------------------------------------------------|

Intro riff again played 4 times. After this part it comes a note before the last chorus 
which is an E and it sounds better played on the 7th fret on the A string. After that E 
it goes like this:

G|-------------------------------------------------------------------|
D|-------------------------------------------------------------------|
A|-00000000----------------------------------------------------------|
E|----------3x3x320--------------------------------------------------|

G|-------------------------------------------------------------------|
D|-------------------------------------------------------------------|
A|-22222222-00000000(x2)---------------------------------------------|
E|-----------------------33333333------------------------------------|

G|-------------------------------------------------------------------|
D|-------------------------------------------------------------------|
A|-22222222-00000000(x2)---------------------------------------------|
E|-----------------------3x3x320-------------------------------------|

G|-------------------------------------------------------------------|
D|-------------------------------------------------------------------|
A|-22222222-00000000(x2)---------------------------------------------|
E|-----------------------33333333-22222222-00000000------------------|

G|-------------------------------------------------------------------|
D|-------------------------------------------------------------------|
A|----------------------------5~-4~----------------------------------|
E|-33333333-22222222-00000000----------------------------------------|

Ending:

G|-------------------------------------------------------------------|
D|-------------------------------------------------------------------|
A|-202002------------------------------------------------------------|
E|-------------------------------------------------------------------|

I have some doubts about the ending.

            
            
Suggest correction
Creating personal tab
Creating personal tab
You can edit any tab online and save it as your Personal.

You can edit, replace or remove any tab part or add personal notes – all changes will be seen only by you.

Personal tabs can be accessed anytime from any device, even offline.
Learn more »
Give kudos to tab author, rate the tab!
1 2 3 4 5
comments
print report bad tab
guest
You may want to rate the tab now too:
select rating
Wanna post a correction for this tab? Suggest correction