Oops, an error
Loading. Please wait.

Johnny Malone tab

19 views 3 this week
no commentswrite comment
1 2 3 4 5
3 more votes to show rating
add to favorites
×
Save as Personal and add changes to this tab that will be seen only by you. Learn more ›
×
You can save this tab as Personal to edit and correct it or add notes. All changes will be seen only by you. Learn more »
launch autoscroll
font size
0
reset
how to read this tab
guitar tuner
edit
Autoscroll
slow
fast
+/-
esc
set tempo
stop
Lori Campbell - Johnny Malone (https://www.youtube.com/watch?v=WEXbhNDE5WA)
                              (https://www.youtube.com/watch?v=1Dsch4JhwXw)

Am:      002210
Fmaj7:   003210 or 033210
C:       032010 or 332010
G:       320003
E:       022100

(Note: Lori plays Fmaj7 as 033210 and C as 332010, 
 but play them which ever way is easier for you.)


[Main Pattern/Verse]:

        [Am]            [Fmaj7]            [C]              [G]
                #                #
e|----0-0-----0-0-|----0-0-----0-0-|----0-0-----0-0-|----3-3-----3-3-|
B|----1-1-----1-1-|----1-1-----1-1-|----1-1-----1-1-|----0-0-----0-0-|
G|----2-2-----2-0-|----2-2-----2-0-|----0-0-----0-0-|----0-0-----0-0-|
D|---------2------|-3-------3------|-2-------2------|-0-------0------|
A|-0--------------|--------(0)-----|(3)-----(3)-----|(2)-----(2)-----|
E|----------------|----------------|----------------|----------------|


(The notes in the parenthesis are sometimes played in place of the note above it.
 Small, but completely optional variations.)

#: The open G string is caused by the moving of the fingers when changing chords.


[Intro]

The first two bars are the same as the verse, but the last two bars are a bit different:

        [C]              [G]

e|----0-0-----0-0-|----3-3--------|
B|----1-1-----1-1-|----0-0--------|
G|----0-0-----0-0-|----0-0--------|  Then into the Riff.
D|-2--------------|-0-------------|
A|---------3------|---------2-0-2-|
E|----------------|---------------|


[Riff]

        [Am]             [Fmaj7]             [C]              [G]

e|----0-0----------|----0-0----------|----0-0----------|----3-3--------|
B|----1-1----------|----1-1------1---|----1-1----------|----0-0--------|
G|----2-2------2---|----2-2--0h2---2-|-0-----------0---|----0-0--------|
D|---------0h2---0-|-3---------------|---------0h2---2-|-0-------------|
A|-0---------------|-----------------|-----------------|---------2-0-2-|
E|-----------------|-----------------|-----------------|---------------|


Note: It is easier (but not required) to play the Riff (and the verse) if you fret
the G chord with your middle, ring, and pinky finger.


[Link into Verse]

        [G]

e|----3-3-----3-3-|
B|----0-0-----0-0-|
G|----0-0-----0-0-|
D|-0--------------|
A|---------2------|
E|----------------|

(This replaces the last bar of the riff when you are going into the verse.)


[Chorus]

        [Am]             [E]

e|----0-0-----0-0-|----0-0-----0-0-|
B|----1-1-----1-1-|----0-0-----0-0-|
G|----2-2-----2-2-|----1-1-----1-1-|
D|---------2------|---------2------|
A|-0--------------|-2--------------|
E|----------------|----------------|

         Three times, then:


        [Am]                    [E]

e|----0-0-----0-0-|----0-0-----0-0-----0-0-----0-0-|
B|----1-1-----1-1-|----0-0-----0-0-----0-0-----0-0-|
G|----2-2-----2-2-|----1-1-----1-1-----1-1-----1-1-|
D|---------2------|---------2----------------------|
A|-0--------------|-2---------------2-------2------|
E|----------------|--------------------------------|

         Then back into the Riff.

Note: Sometimes the chorus is extended. In that case,
Lori keeps playing this bar before going into the Riff again:

     [E]

e|----0-0--|
B|----0-0--|
G|----1-1--|
D|-2-------|
A|---------|
E|---------|

(The number of times she plays this bar varies, so just play along to the song
 and notice how many times she plays it before going back into the riff.)


[Outro]

     [G]                                         

e|----3-3--|                               
B|----0-0--|                               
G|----0-0--|     
D|-0-------|   
A|---------|                               
E|---------|                              

Play this about 8 times,
slowing down at bar 7, then:

      [Am]

e|-------------|
B|-------------|
G|----------2--|  
D|--------2----|  
A|--0----------|  
E|-------------|

Let the A string ring out.
After a 2 second pause,
play the D and G string, softly.


***********************************

| h   Hammer-on

***********************************
Suggest correction
Creating personal tab
Creating personal tab
You can edit any tab online and save it as your Personal.

You can edit, replace or remove any tab part or add personal notes – all changes will be seen only by you.

Personal tabs can be accessed anytime from any device, even offline.
Learn more »
Give kudos to tab author, rate the tab!
1 2 3 4 5
comments
print report bad tab
guest
You may want to rate the tab now too:
select rating
Wanna post a correction for this tab? Suggest correction