Oops, an error
Loading. Please wait.

You tab

225 views 1 this week
1 commentread comment
1 2 3 4 5
2 more votes to show rating
add to favorites
×
Save as Personal and add changes to this tab that will be seen only by you. Learn more ›
×
You can save this tab as Personal to edit and correct it or add notes. All changes will be seen only by you. Learn more »
launch autoscroll
font size
0
reset
how to read this tab
guitar tuner
edit
Autoscroll
slow
fast
+/-
esc
set tempo
stop
You by Lori Fine (COLDFEET)

Tabber- Jake Chen

From the Samurai Champloo OST. 

Drop D Tuning, Capo on 1st Fret or tune one step up. 

Questions & Comments to darc_blade@hotmail.com


E|----0--------------------|----0----------------|
B|---3-----3----0h1------3-|---3-----8----3----0-|
G|--0-----2----0------2h4--|--0-----7----2-------|
D|-------4----2------4-----|-------9----4-----8--|
A|-3----2----0------2------|-3----7----2-----6---|
E|-------------------------|----------------6----|

E|----0--------------------|----0-------------------|
B|---3-----3----0h1------3-|---3-----8----3---------|
G|--0-----2----0------2h4--|--0-----7----2---10-----|
D|-------4----2------4-----|-------9----4------10-8-|
A|-3----2----0------2------|-3----7----2------------|
E|-------------------------|----------------8-------|

            
            
Suggest correction
Creating personal tab
Creating personal tab
You can edit any tab online and save it as your Personal.

You can edit, replace or remove any tab part or add personal notes – all changes will be seen only by you.

Personal tabs can be accessed anytime from any device, even offline.
Learn more »
Give kudos to tab author, rate the tab!
1 2 3 4 5
comments
print report bad tab
1 comment total.
0 reply
nottaj 10 Oct 06, 2013 03:08 AM

Standard tuning version.

E|------------------------------------------------|------|
B|----6----4---1h2-------4---6-----9-------4----1-|--4---|
G|---5----3----------3h5----5-----8--10---3----3--|---3--|
D|--6----5----3-----5------6----10-------5----1---|----1-|
A|-4----3----1-----3------4----8--------3----1----|-1----|
E|------------------------------------------------|------|


Capo on the 1 if you want it, but they're all bar chords anyway. First two chords are Gary Clark Jr's "Things Are Changing" dropped a half step, so check that out too.

guest
You may want to rate the tab now too:
select rating
Wanna post a correction for this tab? Suggest correction