Oops, an error
Loading. Please wait.

Mi Realidad chords

version 1
version 1

Whole song

Interactive

772 views 15 this week
no commentswrite comment
1 2 3 4 5
3 more votes to show rating
add to favorites
×
Save as Personal and add changes to this tab that will be seen only by you. Learn more ›
×
You can save this tab as Personal to edit and correct it or add notes. All changes will be seen only by you. Learn more »
launch autoscroll
font size
0
reset
transpose
0
reset
display chords
guitar tuner
edit
Autoscroll
slow
fast
+/-
esc
set tempo
stop
Author
Strumming
There is no strumming pattern for this song yet. and get +5 IQ
[Intro]

 G       Dm        F       C
e|--------------------------------------|
B|--------------------------------------|
G|-7-5-7-9-10-9-10-9-5-4-5-7-9-7-9-7----|
D|--------------------------------------|
A|--------------------------------------|
E|--------------------------------------|


[Intro] x2


[Verse]

G
     Dm                F        C                   G
Lo siento por interrumpir, solo he venido a preguntar
     Dm                F        C                   G
me dicen que soy infeliz, qué puedo hacer por mejorar


[Intro] x2

 G       Dm        F       C
e|--------------------------------------|
B|--------------------------------------|
G|-7-5-7-9-10-9-10-9-5-4-5-7-9-7-9-7----|
D|--------------------------------------|
A|--------------------------------------|
E|--------------------------------------|


[Verse]

G
     Dm               F         C                G
Psicoanalistas deprimí, con un trastorno bipolar
   Dm              F      C                G  Dm  F
razones para desistir y tiempo para imaginar
    C                     G  Dm  F
Mi mundo que es mi realidad
    C                      Dm
Mi mundo que es mi realidad


[Chorus]

                A#                           F
Yo no necesito hablar para expresar una emoción,
                    C    Dm
me basta solo con mirar
                 A#                        F    C
pero si necesito amar que es mi única ambición

Y es lo que necesito


[Intro] x2

 G       Dm        F       C
e|--------------------------------------|
B|--------------------------------------|
G|-7-5-7-9-10-9-10-9-5-4-5-7-9-7-9-7----|
D|--------------------------------------|
A|--------------------------------------|
E|--------------------------------------|


[Verse]

G
      Dm                 F      C                    G
Qué puedo hacer por mejorar mi mundo que es mi realidad
      Dm                 F      C                    G   Dm  F
Qué puedo hacer por mejorar mi mundo que es mi realidad
    C                   G   Dm  F
Mi mundo que es mi realdiad
    C                   G
Mi mundo que es mi realdiad

                 Dm         F      C
Se que a veces tengo sensación de que no va a
    G             Dm          F   C  Dm
cambiar que solo puede ir a peor


[Chorus]

                A#                          F
Yo no necesito hablar para expresar una emoción,
                    C    Dm
me basta solo con mirar
                 A#                     F       C
pero si necesito amar que es mi única ambición

Y es lo que necesito


[Intro] x3

 G       Dm        F       C
e|--------------------------------------|
B|--------------------------------------|
G|-7-5-7-9-10-9-10-9-5-4-5-7-9-7-9-7----|
D|--------------------------------------|
A|--------------------------------------|
E|--------------------------------------|

Y es lo que necesito


[Outro]

G       Dm       F
e|--------------------------------------|
B|--------------------------------------|
G|-7-5-7-9-10-9-10-9-5-4-5-7-9-7-9-7----|
D|--------------------------------------|
A|--------------------------------------|
E|--------------------------------------|

            
            
Suggest correction
Creating personal tab
Creating personal tab
You can edit any tab online and save it as your Personal.

You can edit, replace or remove any tab part or add personal notes – all changes will be seen only by you.

Personal tabs can be accessed anytime from any device, even offline.
Learn more »
Give kudos to tab author, rate the tab!
1 2 3 4 5
comments
print report bad tab
guest
You may want to rate the tab now too:
select rating
Wanna post a correction for this tab? Suggest correction