Oops, an error
Loading. Please wait.

Ahora Que No Estas tab

version 1
version 1

Whole song

Interactive

7,588 views 24 this week
no commentswrite comment
1 2 3 4 5
3 more votes to show rating
add to favorites
×
Save as Personal and add changes to this tab that will be seen only by you. Learn more ›
×
You can save this tab as Personal to edit and correct it or add notes. All changes will be seen only by you. Learn more »
launch autoscroll
font size
0
reset
how to read this tab
guitar tuner
edit
Autoscroll
slow
fast
+/-
esc
set tempo
stop
Difficulty
Guitar 2 Version:

A7=x10121211x                                                G7=x8101010x
                                 D7=x6888x
  RE/FA#:2xx232                                               FAm6:133131                
                                      DO/MI:032010
SOL7#/RE#:464544
La#=687766
LA#/LA:587766                                                              Solm=355333
Re#=x68886
Do=X35553
Re=X57775

Solm
Ahora que no estás
Fa
y no puedo dormir
re#                 Do
Y tomo más pastillas para sobrevivir,
Solm
Ahora que te miro
Fa
y que pareces otra,
re#                  Do
Entiendo las palabras que caen de tu boca,
A7
Ahora es evidente
G7
que tú duermes con otro
D7                    Riff1
Y no era tan difícil como me dijiste ayer.
Riff1
E|----------------------------|
B|----------7-----------------|
G|--------5------5------------|
D|-----7---------7------------|
A|---5------------------------|
E|----------------------------|

Solm
Vete muy lejos,
RE/FA#                         FAm6                  DO/MI
muy lejos de este mundo Aunque sea demasiado tarde para ti
 re#        La#  LA#/LA
No me dejes aquí
 Do                     Re
lo poco y nada que nos queda

Quédate lejos
tan lejos de mi mente
Donde no mires de frente a nadie como yo
No me dejes aquí esperando
Como si fuera cosa fácil para mí.

Riff2
E|------------------------------------|
B|------------------------------------|
G|--------6---5-------------3--2------|
D|----5-----------------2---------5---|
A|--6---6-------8-----3---3-----------|
E|------------------------------------|

Ahora que no estás y no puedo dormir
Y sé que no bastaba mi alma para ti
Ahora que no importa que yo me venga abajo
Y todas las razones se caen a pedazos
Ahora que estoy solo y muero por mi cuenta
Entiendo las palabras que escupiste sobre mí.

Vete muy lejos, muy lejos de este mundo
Aunque sea demasiado tarde para ti
No me dejes aquí lo poco y nada que nos queda,
Quédate lejos tan lejos de mi mente
Donde no mires de frente a nadie como yo
No me dejes aquí esperando
Como si fuera cosa fácil para mí.

Outro              x7
E|----------------------------|--8--10—-10/12--------|
B|----------------------------|----------------------|
G|--15-15-15--14-14--12-12-12-|----------------------|
D|----------------------------|----------------------|
A|----------------------------|----------------------|
E|----------------------------|----------------------|
Suggest correction
Creating personal tab
Creating personal tab
You can edit any tab online and save it as your Personal.

You can edit, replace or remove any tab part or add personal notes – all changes will be seen only by you.

Personal tabs can be accessed anytime from any device, even offline.
Learn more »
Give kudos to tab author, rate the tab!
1 2 3 4 5
comments
print report bad tab
guest
Wanna post a correction for this tab? Suggest correction