Oops, an error
Loading. Please wait.

Basta tab

37 views 1 this week
no commentswrite comment
1 2 3 4 5
3 more votes to show rating
add to favorites
×
Save as Personal and add changes to this tab that will be seen only by you. Learn more ›
×
You can save this tab as Personal to edit and correct it or add notes. All changes will be seen only by you. Learn more »
launch autoscroll
font size
0
reset
how to read this tab
guitar tuner
edit
Autoscroll
slow
fast
+/-
esc
set tempo
stop
otro tab para la ninia en mi corazon... disfutenla q es una buena
cancion!

Basta:

Intro sobre punteo en ( A E D E ) x2

e|--------------9-10-9h10p9-------9^^---7h9-7h9-7h8p7----7^^9-7
B|------9-10-12-------------10---10--10---------------9--9-----
G|-9-11-----------------------9--9---------------------9-9-----
D|-------------------------------------------------------------
A|-------------------------------------------------------------
E|-------------------------------------------------------------

e|-4/5-4/5-------14-12^^^|
B|-6/7-6/7-5-3-----------|
G|-----------------------|
D|-----------------------|
A|-----------------------|
E|-----------------------|


       A                          E
Si tu no estas me pierdo en el tiempo
                D                          E
Si no tengo tu cuerpo siento que no tengo vida
Si tu no estas me matan los recuerdos
De todos los momentos llenos de felicidad.

          D                      E
De que me sirve vivir si no te tengo
           A                     C#
De que me sirve si no te puedo amar
          Bm           D          E
De que me sirve vivir así en soledad.

           A               F#
Basta de llorar, basta de sufrir
    Bm                 E
No tiene sentido vivir así
          A                F#
Basta de llorar, basta de sufrir
                  Bm                     D
De amor nadie muere y bien sabes que es así
                  E            A
Ahora si quieres puedes ser feliz.

punteo igual q el intro Base en A E D E

(como el verso 1 en A E D E)
Si tu no estas me pierdo en el tiempo
Si no tengo tu cuerpo siento que no tengo vida
Si tu no estas me matan los recuerdos
De todos los momentos llenos de felicidad.

De que me sirve vivir si no te tengo
De que me sirve si no te puedo amar
De que me sirve vivir así en soledad.

Basta de llorar, basta de sufrir
No tiene sentido vivir así
Basta de llorar, basta de sufrir
De amor nadie bien sabes que es así
Ahora si quieres puedes ser feliz.

solo en base A E DEDe que me sirve vivir si no te tengo
De que me sirve si no te puedo amar
De que me sirve vivir así en soledad.

Basta de llorar, basta de sufrir
No tiene sentido vivir así
Basta de llorar, basta de sufrir
De amor nadie muere y bien sabes que es así
Ahora si quieres puedes ser feliz.

Si tu no estas me pierdo en el tiempo
Si no tengo tu cuerpo siento que no tengo vida
Si tu no estas me matan los recuerdos
De todos los momentos llenos de felicidad.

De que me sirve vivir si no te tengo
De que me sirve si no te puedo amar
De que me sirve vivir así en soledad.

Basta de llorar, basta de sufrir
No tiene sentido vivir así
Basta de llorar, basta de sufrir
De amor nadie bien sabes que es así
Ahora si quieres puedes ser feliz.

solo en base A E D E

e|----------------------------------------12-10-10-9-9h10p9
B|--------------------9-12--10-10--9h10p9------------------
G|6h7^^666--6-7-8-9--9-------------------------------------
D|---------------------------------------------------------
A|---------------------------------------------------------
E|---------------------------------------------------------

e|------10----9h10p9----------------|
B|----10------------12-10-9-9-10-12-|
G|9-11------------------------------|
D|----------------------------------|
A|----------------------------------|
E|----------------------------------|


Basta de llorar, basta de sufrir
No tiene sentido vivir así
Basta de llorar, basta de sufrir
De amor nadie bien sabes que es así
Ahora si quieres puedes ser feliz.

Basta de llorar, basta de sufrir
No tiene sentido vivir así
Basta de llorar, basta de sufrir
De amor nadie bien sabes que es así
Ahora si quieres puedes ser feliz.

e|----------------------------------------12-10-10-9-9h10p9
B|--------------------9-12--10-10--9h10p9------------------
G|6h7^^666--6-7-8-9--9-------------------------------------
D|---------------------------------------------------------
A|---------------------------------------------------------
E|---------------------------------------------------------

e|------10----9h10p9----------------|
B|----10------------12-10-9-9-10-12-|
G|9-11------------------------------|
D|----------------------------------|
A|----------------------------------|
E|----------------------------------|

e|----------------------------------------12-10-10-9-9h10p9
B|--------------------9-12--10-10--9h10p9------------------
G|6h7^^666--6-7-8-9--9-------------------------------------
D|---------------------------------------------------------
A|---------------------------------------------------------
E|---------------------------------------------------------

e|------10----9h10p9----------------|
B|----10------------12-10-9-9-10-12-|
G|9-11------------------------------|
D|----------------------------------|
A|----------------------------------|
E|----------------------------------|


e|-------12-10-9-10-12-10-9-9h10p9--------|
B|--9-10---------------------------12-10^^|
G|----------------------------------------|
D|----------------------------------------|
A|----------------------------------------|
E|----------------------------------------|

h: hummer(es cuando tapas la nota apoyando el dedo)
p: pull off(cuando soltas el dedo y le das un pekeño tiron)
/:slide (arrastrar la nota)
^^:let ring (dejar sonando depende la cantidad es el tiempo)


cuando combinas el Hummer y el Pull of suena como ese gancho
q se usa mucho en cumbia, es MUY recomendable usar muchos
pull off en cumbia! (ej: 9h10p9)

le falta un par de "arreglos" pero el q sabe masomenos lo
escucha y le saca los "ganchos"

creo q no falta nada!!
bue suerte!! token q ta bueno!!!

por cualkier cosa aka ta mi mail!!!

Beto_arias@

BeTo! Autentico Sonido!


            
            
Suggest correction
Creating personal tab
Creating personal tab
You can edit any tab online and save it as your Personal.

You can edit, replace or remove any tab part or add personal notes – all changes will be seen only by you.

Personal tabs can be accessed anytime from any device, even offline.
Learn more »
Give kudos to tab author, rate the tab!
1 2 3 4 5
comments
print report bad tab
guest
Wanna post a correction for this tab? Suggest correction