Oops, an error
Loading. Please wait.

Aire tab

384 views 1 this week
no commentswrite comment
1 2 3 4 5
3 more votes to show rating
add to favorites
×
Save as Personal and add changes to this tab that will be seen only by you. Learn more ›
×
You can save this tab as Personal to edit and correct it or add notes. All changes will be seen only by you. Learn more »
launch autoscroll
font size
0
reset
how to read this tab
guitar tuner
edit
Autoscroll
slow
fast
+/-
esc
set tempo
stop
De intro el teclado hace esto:

             C#m     F#m     D        E
|---------------|----10----|---------------|
|---------10-12-|-10----12-|---------------|
|-9-11-12-------|----------|-11-12/11/9-11-| x2
|---------------|----------|---------------|
|---------------|----------|---------------|
|---------------|----------|---------------|

            C#m     F#m     D        E
|---------------|-12-10----|---------------|
|---------10-12-|-------12-|---------------|
|-9-11-12-------|----------|-11-12/11/9-11-| x2
|---------------|----------|---------------|
|---------------|----------|---------------|
|---------------|----------|---------------|

|------------|
|------------|
|-9h11h9h11--|
|------------|
|------------|
|------------|

Esto se repite despues del primer coro,
sin embargo se hace el riff 1 dos veces,
seguido del riff 2, y nuevamente el riff 1.

Además se tocan en los últimos coros, pero
de una forma entre cortada, (escuchando la
canción se dará cuenta como se hace)

Les debo los metales, pero son sensillos,
lo que hacen esta dentro de esta misma progresión.
Suggest correction
Creating personal tab
Creating personal tab
You can edit any tab online and save it as your Personal.

You can edit, replace or remove any tab part or add personal notes – all changes will be seen only by you.

Personal tabs can be accessed anytime from any device, even offline.
Learn more »
Give kudos to tab author, rate the tab!
1 2 3 4 5
comments
print report bad tab
guest
Wanna post a correction for this tab? Suggest correction