Oops, an error
Loading. Please wait.

No Te Calles tab

43 views 3 this week
no commentswrite comment
1 2 3 4 5
3 more votes to show rating
add to favorites
×
Save as Personal and add changes to this tab that will be seen only by you. Learn more ›
×
You can save this tab as Personal to edit and correct it or add notes. All changes will be seen only by you. Learn more »
launch autoscroll
font size
0
reset
how to read this tab
guitar tuner
edit
Autoscroll
slow
fast
+/-
esc
set tempo
stop
Esta rola es casi un himno de los calzones rotos????..

Suena  mucho mejor con los acordes con cejilla
Cabe anotar que el ritmo va a contratiempo
la vuelta de la Intro dice aquí asi

   D           C                  D                 C
e----------------------------------------------------------
B------------------------8-6-5-----------------------------
G--7-7----7----5-5----5--------5--7-7----7--7-7-9-7-5-5---5
D-----7-9---------5-7-----------------7-9--------------5-7-
A----------------------------------------------------------
E----------------------------------------------------------

           D                  C
e----------------------------------------------------------
B-8-6-5---------------------------------8-6-5--------------
G------5---7-7----7---7-7-9-7-5-5----5---------------------
D-------------7-9----------------5-7-----------------------
A----------------------------------------------------------
E----------------------------------------------------------

    G                        C
Gritá, saltá, llorá oe oe oe rompe oe
    G                        C
Gritá, saltá, llorá oe oe oe rompe oe

        D
Si te pisan la cabeza
                              C
Y te llevan a la fuerza no te calles

No no no te calles

         D
Si golpean en tu cara
                            C
Y te ciegan la mirada no te calles

No no no te calles


       D
Si te roban los de arriba
                                 C
Y te esperan en la esquina no te calles

No no no te calles


Gritá, salta??????.
          D
No te calles si te obligan,

No te calles si te pegan,
          C
No te calles si te kagan

No no no te calles

Intro:
   D           C                  D                 C
e----------------------------------------------------------
B------------------------8-6-5-----------------------------
G--7-7----7----5-5----5--------5--7-7----7--7-7-9-7-5-5---5
D-----7-9---------5-7-----------------7-9--------------5-7-
A----------------------------------------------------------
E----------------------------------------------------------

           D                  C
e----------------------------------------------------------
B-8-6-5---------------------------------8-6-5--------------
G------5---7-7----7---7-7-9-7-5-5----5---------------------
D-------------7-9----------------5-7-----------------------
A----------------------------------------------------------
E----------------------------------------------------------

Si te mienten al hablarte
y te tiran a la calle no te calles
No no no te calles

Si te pegan por la espalda
Sin aviso ni palabra no te calles
No no no te calles

Si nada se termina
Y no hay una salida no te calles
No no no te calles


Gritá, saltá,?????????
No te calles?????.

            
            
Suggest correction
Creating personal tab
Creating personal tab
You can edit any tab online and save it as your Personal.

You can edit, replace or remove any tab part or add personal notes – all changes will be seen only by you.

Personal tabs can be accessed anytime from any device, even offline.
Learn more »
Give kudos to tab author, rate the tab!
1 2 3 4 5
comments
print report bad tab
guest
Wanna post a correction for this tab? Suggest correction