Oops, an error
Loading. Please wait.

Entrega Total chords

version 1
version 1

Whole song

103 views 1 this week
no commentswrite comment
1 2 3 4 5
3 more votes to show rating
add to favorites
×
Save as Personal and add changes to this tab that will be seen only by you. Learn more ›
×
You can save this tab as Personal to edit and correct it or add notes. All changes will be seen only by you. Learn more »
launch autoscroll
font size
0
reset
transpose
0
reset
simplify chords
display chords
guitar tuner
edit
Autoscroll
slow
fast
+/-
esc
set tempo
stop
Strumming
There is no strumming pattern for this song yet. and get +5 IQ
Intro:

    A#         Gm  Cm           F7          A#        Gm Cm  
E ------------------------------10----------10--10-11-10--
B --11--11-13-11-------10-11-13----13-11-13---------------
G --------------------------------------------------------

             F7            A#  Gm            Cm
E -----10-11-13-11--10-11-13-------------10-11------------
B --13-----------------------------11-13------------------
G --------------------------------------------------------
  
          F7            A#        Gm  Cm          F7
E --11-11-10------------10------------11--------------
B -----------13-11-10------11-10---------11-10--------
G -------------------------------12------------12-10--


A#     Gm Cm         F7   
Esta vez,    ya no soporto 
       A#        Gm Cm 
la terrible soledad
          F7         A#   Gm
yo no te pongo condición
         Cm            F7 
haras conmigo lo que quieras
        A#  Gm Cm F7
bien o mal

 A#   Gm Cm            F7       
Llevame      de ser posible
          A#         Gm  Cm 
hasta la misma eternidad
          F7            A#  Gm
donde perdure nuestro amor
           Cm  
por que tu eres 
     F7        A#  Gm Cm G#7 
toda mi felicidad

  C#         A#m
Llevame si quieres 
          D#m         G#7 
hasta el fondo del dolor
 C#           A#m
haslo como quieras
        D#m        G#7
por maldad o por amor

 A#        Gm Cm  
Pero esta vez 
            F7 
quiero entregarme
        A#           Gm  Cm 
a ti en una forma total
          F7         A#  Gm  
no con un beso nada mas
           Cm
quiero ser tuyo 
         F7            A# Gm Cm F7
sea por bien o sea por mal 


    A#         Gm  Cm           F7          A#        Gm Cm  
E ------------------------------10----------10--10-11-10--
B --11--11-13-11-------10-11-13----13-11-13---------------
G --------------------------------------------------------

             F7            A#  Gm            Cm
E -----10-11-13-11--10-11-13-------------10-11------------
B --13-----------------------------11-13------------------
G --------------------------------------------------------
  
          F7           A#   G#7     
E --11-11-10-----------------
B -----------13-11-10-11-----
G ---------------------------

  C#         A#m
Llevame si quieres 
          D#m         G#7 
hasta el fondo del dolor
 C#           A#m
haslo como quieras
        D#m        G#7
por maldad o por amor

 A#        Gm Cm  
Pero esta vez 
            F7 
quiero entregarme
        A#           Gm  Cm 
a ti en una forma total
          F7         A#  Gm  
no con un beso nada mas
           Cm
quiero ser tuyo 
         F7            A#  Gm 
sea por bien o sea por mal
           Cm
quiero ser tuyo 
         F7            A#  Gm
sea por bien o sea por mal
           Cm
quiero ser tuyo 
         F7            A#
sea por bien o sea por mal

            
            
Suggest correction
Creating personal tab
Creating personal tab
You can edit any tab online and save it as your Personal.

You can edit, replace or remove any tab part or add personal notes – all changes will be seen only by you.

Personal tabs can be accessed anytime from any device, even offline.
Learn more »
Give kudos to tab author, rate the tab!
1 2 3 4 5
comments
print report bad tab
guest
Wanna post a correction for this tab? Suggest correction