Oops, an error
Loading. Please wait.

Death To Los Campesinos Tab

25,476 views 12 this week
3 commentsread comments
1 2 3 4 5
x 11
add to favorites
launch autoscroll
font size
0
reset
how to read this tab
guitar tuner
Autoscroll
slow
fast
+/-
esc
set tempo
stop
Help us to improve Ultimate-Guitar.com Take our survey!
×
Author
Difficulty
intermediate
----------------------------------------------------------------------------
                DEATH TO LOS CAMPESINOS! - Los Campesinos!
----------------------------------------------------------------------------

Tabbed by: David

Tuning: Standard

This is the first time I've ever tabbed out anything -ever-, and it's only
because I couldn't find a tab for this song anywhere. I'd appreciate it if anyone
would like to contribute towards correcting it, if indeed it is incorrect. 

Oh and I just know that the tab will go all out of sync so sorry in advance for that.

Intro:

May not be the right amount of strums but it definitely involves these chords:

    F#m                         A

e|--9---9---9---12--9---9---9---x--------------------------------|
B|--12--12--10--10--10--12--12--5--------------------------------|
G|--11--11--11--11--11--11--11--6--------------------------------|
D|--0---0---0---0---0---0---0---7--------------------------------|
A|---------------------------------------------------------------|
E|---------------------------------------------------------------|

Opening riff:

    F#m

e|--9----------9----------------9---------9----------------------|
B|----10----10---10----10-10------10---10---10---10-10-----------|
G|-------11---------11-------11------11--------11------11--------|
D|---------------------------------------------------------------|
A|---------------------------------------------------------------|
E|---------------------------------------------------------------|

    A

e|-------9---------9---------------9---------9-------------------|
B|----10---10---10---10-10-10---10---10---10---10-10-10----------|
G|--9---------9---------------9---------9------------------------|
D|---------------------------------------------------------------|
A|---------------------------------------------------------------|
E|---------------------------------------------------------------|

Verse:

Muted chords

F#m

Broken down like the war economy
but father Führer, don't be mad at me

A

peasant child, you're into botany
spitting necks and calling the dichotomy

F#m

beware, the sign on the door suggests -
I'm better off with artificial intelligence

A

I invented you
(I invented you)
AND I WILL DESTROY YOU.

Whenever the rhythm plays A, the lead plays this:

e|---------------------------------------------------------------------|
B|------10-------10----10-12-10-------10-------10----10-12-10----------|
G|--9h11--11p9h11--11p9--------11-9h11--11p9h11--11p9--------11--------|
D|---------------------------------------------------------------------|
A|---------------------------------------------------------------------|
E|---------------------------------------------------------------------|

Now I think these are the chorus chords:

F#m                     A 
If you catch me with my hands in the till
F#m                        A 
I promise, sugar, I wasn't trying to steal
B
I'm just swimming in copper
D
to smell and pretend
E
like a robot!

This is the flimsiest part of the tab.

As for the chorus lead, it is basically this:

e|---------------------12-10-9-10-10-10--------------------12-10-9-10-10-10|
B|--9h10-10-10-9h10-10------------------9h10-10-10-9h10-10-----------------|
G|-------------------------------------------------------------------------|
D|-------------------------------------------------------------------------|
A|-------------------------------------------------------------------------|
E|-------------------------------------------------------------------------|

e|-----------------------12-10-10-10-10-10-10-10-12-12-12-12--|
B|--12-12-12-12-12-12-12--------------------------------------|
G|------------------------------------------------------------|
D|------------------------------------------------------------|
A|------------------------------------------------------------|
E|------------------------------------------------------------|

Solo:

This cannot possibly be right, but it's something along these lines:

e|---------------12-14-17-14-12-------------------------------|
B|-------10-12s14---------------14-12-----x2------------------|
G|--9-11------------------------------14----------------------|
D|------------------------------------------------------------|
A|------------------------------------------------------------|
E|------------------------------------------------------------|

e|------9--------9--------10-9---------------------------|
B|------10-------10------------12------------------------|
G|--9h11--11p9h11--11p9h11--------------x2---------------|
D|-------------------------------------------------------|
A|-------------------------------------------------------|
E|-------------------------------------------------------|

Something resembling this solo is played over the latter part of the second verse also. Fact.

This anomalous little ditty is thrown in every so often:

e|--17-14-12----------12----------------------------------------------|
B|-----------14-12-14----14-12----x2----------------------------------|
G|----------------------------14--------------------------------------|
D|--------------------------------------------------------------------|
A|--------------------------------------------------------------------|
E|--------------------------------------------------------------------|


That's everything you need, you just need to put it in the right order and repeat
some bits and the job's a good 'un.

Cheerio!
Suggest correction
comments
print report bad tab
3 comments total.
+1 reply
lion1 32 Aug 23, 2008 08:29 AM

F#m
Broken down like the war economy
but father Führer, don't be mad at me

I think it should be a D

B
I'm just swimming in copper

Should probably be a Bm?

Cheers for the tab though, most of it is right :)

+1 reply
Hexodrome 60 Dec 10, 2008 02:20 PM

Lion 1 is right the chords are better most los campesinos! songs use those chords.

0 reply
buggernuts12 10 Feb 16, 2010 02:57 PM

I think the solo is more like this... Not too
sure though, I worked it out in the middle of
the night. Thanks for the tab!!!
E|----------------------------17------------|
B|-------------------------17----17---------|
G|----------------16---16b----------16-14---|
D|-------14h16/18---------------------------|
A|-14h16------------------------------------|
E|------------------------------------------|

guest
You may want to rate the tab now too:
select rating
Wanna post a correction for this tab? Suggest correction