Oops, an error
Loading. Please wait.

Heart Swellspacific Daylight Time Tab

6,164 views 1 this week
2 commentsread comments
1 2 3 4 5
excellent!
x 7
add to favorites
launch autoscroll
font size
0
reset
how to read this tab
guitar tuner
Autoscroll
slow
fast
+/-
esc
set tempo
stop
Help us to improve Ultimate-Guitar.com Take our survey!
×
Intro

e|---------------------------------------------------|
B|-----4-----4-----4-----4------4-----4-----4-----4--|
G|---4-----4-----4-----4------4-----4-----4-----4----|
D|-2-----2-----2-----2-------------------------------|
A|--------------------------4-----4-----4-----4------|
E|---------------------------------------------------|

e|---------------------------------------------------|
B|-----4-----4-----4-----4------4-----4-----4-----4--|
G|---4-----4-----4-----4------4-----4-----4-----4----|
D|---------------------------------------------------|
A|-0-----0-----0-----0------2-----2-----2-----2------|
E|---------------------------------------------------|

Verse (a second guitar can play the F# you hear on the recording) 

e|---------------------------------------------------|
B|-----4-----4-----4-----4------4-----4-----4-----4--|
G|---4-----4-----4-----4------4-----4-----4-----4----|
D|-2-----2-----2-----2-------------------------------|
A|--------------------------4-----4-----4-----4------|
E|---------------------------------------------------|
 black holes,unraised moles,let's just call them freckles

e|---------------------------------------------------|
B|-----4-----4-----4-----4------4-----4-----4-----4--|
G|---4-----4-----4-----4------4-----4-----4-----4----|
D|---------------------------------------------------|
A|-0-----0-----0-----0------2-----2-----2-----2------|
E|---------------------------------------------------|
   hair cut, heart left,    happy on the west coast

e|---------------------------------------------------|
B|-----4-----4-----4-----4------4-----4-----4-----4--|
G|---4-----4-----4-----4------4-----4-----4-----4----|
D|-2-----2-----2-----2-------------------------------|
A|--------------------------4-----4-----4-----4------|
E|---------------------------------------------------|
  coat fell,  heart swells, draped across the sofa

e|---------------------------------------------------|
B|-----4-----4-----4-----4------4-----4-----4-----4--|
G|---4-----4-----4-----4------4-----4-----4-----4----|
D|---------------------------------------------------|
A|-0-----0-----0-----0------2-----2-----2-----2------|
E|---------------------------------------------------|
   sleep well, I feel,      you've ruined me forever 

e|---------------------------2--|
B|-----4-----4-----4-----4---3--|
G|---4-----4-----4-----4-----2--|
D|-2-----2-----2-----2-------0--|
A|------------------------------|
E|------------------------------|


D                                        G
I don't want to sound trite but you were perfect
                       D                      G
The way you look could seriously make nature dysmorphic
                      D                         G
I wish that you would kiss me 'til the point of paralysis
                   D                             G
The way I flail my arms in front of you, it just embarrasses
           Em           G
I'll never turn my body clock back
                    Em                G
And think about the things I'm glad I left out
                          D
Some things are best left unsaid. 




Suggest correction
comments
print report bad tab
2 comments total.
0 reply
ImcompotentFool 31 wrote on February 6 2009, 07:42 pm

Great tab!

0 reply
staticstatic 421 wrote on August 7 2010, 11:44 am

Very good, i love this song, there are just 2 bits missing from this tab, in the Pacific Daylight Time part, the D and G chords. I cant figure out the G chord but the D is;

e--2-2-2-2-----2-2-2-2-
B--3-3-3-3-----3-3-3-3-
G--2-2-2-2-0h2-2-2-2-2-
D-0------------0-0-0-0-

im probably just being pedantic, i guess you were going for simplicity, sorry.

guest
You may want to rate the tab now too:
select rating
Please do not post tabs as comments. Select "correction" instead!