Oops, an error
Loading. Please wait.

Hello Sadness chords

version 2
version 2

Whole song

175 views 1 this week
no commentswrite comment
1 2 3 4 5
2 more votes to show rating
add to favorites
×
Save as Personal and add changes to this tab that will be seen only by you. Learn more ›
×
You can save this tab as Personal to edit and correct it or add notes. All changes will be seen only by you. Learn more »
launch autoscroll
font size
0
reset
transpose
0
reset
simplify chords
display chords
guitar tuner
edit
Autoscroll
slow
fast
+/-
esc
set tempo
stop
Author
Strumming
There is no strumming pattern for this song yet. and get +5 IQ
[Intro]

 C

e|---------------------------------------------------------------------------|
B|---------------------------------------------------------------------------|
G|-----0---0-----------------------------------------------------------------|
D|-------------2-2-0-------0-------------------------------------------------|
A|-3-3---3---3-------3--3-----3----------------------------------------------| x4
E|---------------------------------------------------------------------------|

e|---------------------------------------------------------------------------|
B|---------------------------------------------------------------------------|
G|---------------------------------------------------------------------------|
D|----2-2-0-----2-2-0----0---------------------------------------------------|
A|--3--------3---------3-----------------------------------------------------| x4
E|---------------------------------------------------------------------------|


[Verse]

e|---------------------------------------------------------------------------|
B|---------------------------------------------------------------------------|
G|-----0---0-----------------------------------------------------------------|
D|-------------2-2-0-------0-------------------------------------------------|
A|-3-3---3---3-------3--3-----3----------------------------------------------| x4
E|---------------------------------------------------------------------------|

e|---------------------------------------------------------------------------|
B|---------------------------------------------------------------------------|
G|---------------------------------------------------------------------------|
D|----2-2-0-----2-2-0----0---------------------------------------------------|
A|--3--------3---------3-----------------------------------------------------| x4
E|---------------------------------------------------------------------------|

  C
A wish bone hangs between your breasts

I hope you haven’t pulled it yet 
       G
and if this little finger doesn’t have the strength 

then i’m scared that this bird's back bone breaks 


[Chorus]

          F                 C/G
It’s only hope that springs eternal 
    F                 C/G
and that’s the reason why
     F               C/G 
this dripping from my broken heart
     F            C/G
it’s never running dry. 


[Verse]

e|---------------------------------------------------------------------------|
B|---------------------------------------------------------------------------|
G|-----0---0-----------------------------------------------------------------|
D|-------------2-2-0-------0-------------------------------------------------|
A|-3-3---3---3-------3--3-----3----------------------------------------------| x4
E|---------------------------------------------------------------------------|

e|---------------------------------------------------------------------------|
B|---------------------------------------------------------------------------|
G|---------------------------------------------------------------------------|
D|----2-2-0-----2-2-0----0---------------------------------------------------|
A|--3--------3---------3-----------------------------------------------------| x4
E|---------------------------------------------------------------------------|

  C
i wear a ring of your lipstick 

around you knuckle of my forth digit
  G 
reminds me what our bodie sowed,

it will do until we are betrothed
 

[Chorus]

          F                 C/G
It’s only hope that springs eternal 
    F                 C/G
and that’s the reason why
     F               C/G 
this dripping from my broken heart
     F            C/G
it’s never running dry. 

    C
The space between your naval 

And your waistband was the ice
      G
Where two fingers pirouette but 

Now these hangnails they just slice
 

[Chorus]

          F                 C/G
It’s only hope that springs eternal 
    F                 C/G
and that’s the reason why
     F               C/G 
this dripping from my broken heart
     F            C/G
it’s never running dry. 


[Break]

 C


[Bridge]
     
     Dm                   Em
your tongue, the tide, your lips, the shore
  F             Am
I am the jetsam overboard
        G
goodbye courage 


[Break] 

C


[Bridge]

  Dm               Em
I christen all the ships that sail
        F             Am
on your little kisses saliva trails, 
        G
goodbye courage 

hello sadness again


[Interlude]

F        C        Dm        C
oooooh,  ooooh,   oooh,     ohhh,
Am       G        Dm,       Am
oooooh,  ooooh,   oooh,     ohhh,
F              C                  Dm               C              
Little kisses, come to pass then, goodbye courage, hello sadness
 

[Chorus]

          Am                 
It’s only hope that springs eternal 
    G                 
and that’s the reason why
     Dm               
this dripping from my broken heart
     Am            
it’s never running dry. 

          F                
It’s only hope that springs eternal 
    C                
and that’s the reason why
     Dm               
My broken heart it’s never running dry.


[Outro]
 
C
Now that those four fingers gone

you leave me only with my thumb 
G
that constantly is pointing down

the emperor bears teeth not frowns
 

[Chorus]
 
          F                 C/G
It’s only hope that springs eternal 
    F                 C/G
and that’s the reason why
     F               C/G 
this dripping from my broken heart
     F            C/G
it’s never running dry. 

            
            
Suggest correction
Creating personal tab
Creating personal tab
You can edit any tab online and save it as your Personal.

You can edit, replace or remove any tab part or add personal notes – all changes will be seen only by you.

Personal tabs can be accessed anytime from any device, even offline.
Learn more »
Give kudos to tab author, rate the tab!
1 2 3 4 5
comments
print report bad tab
guest
You may want to rate the tab now too:
select rating
Wanna post a correction for this tab? Suggest correction