Oops, an error
Loading. Please wait.

You Me Dancing Tab

72,865 views 60 this week
5 commentsread comments
1 2 3 4 5
x 31
add to favorites
launch autoscroll
font size
0
reset
how to read this tab
guitar tuner
Autoscroll
slow
fast
+/-
esc
set tempo
stop
Help us to improve Ultimate-Guitar.com Take our survey!
×
Author
Difficulty
intermediate
Artist: Los Campesinos!
Song: You! Me! Dancing!
Album: Hold On Now, Youngster (released March 08)
Tabbed by: Andrew Carr

(Guitar 2 plays practically the same two chords (A and D) throughout the song, just in 
strumming patterns, keep that in mind.)

[Intro]
(Guitar 1)
e|----------------------------------------------------------------------------------|
B|----------------------------------------------------------------------------------|
G|---------------------------------------------------------------14-----------------|
D|11---11/9-9---9/7-7---7/2-2/4---4/2-2/11-11---11/14-14---14h16----16/14-14/11-11--|
A|0----0--0-0---0-0-0---0-0-0-0---0-0-0-0--0----0--0--0----0--------0--0--0--0--0---|
E|----------------------------------------------------------------------------------|

e|----------------------------------------------------------------------------------|
B|----------------------------------------------------------------------------------|
G|----------------------------------------------------------------------------------|
D|11/14-14---14/9-9---9/11-11---11/6-6---6/7-7--12-12-12-12-12-12-12-12-12-12-12-12-|
A|0--0--0----0--0-0---0-0--0----0--0-0---0-0-0--0--0--0--0--0--0--0--0--0--0--0--0--|
E|----------------------------------------------------------------------------------|

e|----------------------------------------------------|
B|----------------------------------------------------|
G|----------------------------------------------------|
D|-12-12-12-12-12-12-12-12-12-12-12-12-14-14-14-14-14-|
A|-0--0--0--0--0--0--0--0--0--0--0--0--0--0--0--0--0--|
E|-------------------------------------0--0--0--0--0--|

[Main Riff/Chorus ] x2

[Guitar 1]
e|-------------------------------------------------------------------------------|
B|-------------------------------------------------------------------------------|
G|-------------------------------------------------------------------------------|
D|11-14-14-11-14-11-11-9-9-7-7-4-4-7-7-4-11-14-14-11-14-11-11-9-9-7-7-4-4-7-7-4--|
A|0--0--0--0--0--0--0--0-0-0-0-0-0-0-0-0-0--0--0--0--0--0--0--0-0-0-0-0-0-0-0-0--|
E|-------------------------------------------------------------------------------|

e|------------------------------------------------------------------|
B|------------------------------------------------------------------|
G|--9-11-9-9-11-9-14-11-9-11-11-11--9-11-11-9-11-9-14-11-9-11-11----|
D|--0-0--0-0-0--0-0--0--0-0--0--0---0-0--0--0-0--0-0--0--0-0--0-----|
A|------------------------------------------------------------------|
E|------------------------------------------------------------------|

e|----------------------|
B|----------------------|
G|--14-14-14/16-16-16---|
D|---0--0--0--0--0--0---|
A|----------------------|
E|----------------------|

[Guitar 2]
(Kicks in with drums)
e|----------------------------|
B|----------------------------|
G|--6-6-6-6-6-6-6-6-6-6-6-6---|
D|--7-7-7-7-7-7-7-7-7-7-7-7---|
A|--7-7-7-7-7-7-7-7-7-7-7-7---|
E|--5-5-5-5-5-5-5-5-5-5-5-5---|

e|-----------------------------------|
B|-----------------------------------|
G|--11-11-11-11-11-11-11-11-11-11----|
D|--12-12-12-12-12-12-12-12-12-12----|
A|--12-12-12-12-12-12-12-12-12-12----|
E|--10-10-10-10-10-10-10-10-10-10----|

[Verse Riff]

(Guitar 1)                                         
                                                   (Play On Last Bar)
e|--------------------------------------------|--------------------------|
B|---14--14----------14--14--14--15--15--14---|--------14----14----14----|
G|----------------14--------------------------|-----14----14----14----14-|
D|-------------16-----------------------------|--16----------------------|
A|--------------------------------------------|--------------------------|
E|--------------------------------------------|--------------------------|

(Guitar 2 just alternates between the same two chords (A and D), but let ring.)

[Pre-Chorus]
(Guitar 1)
e|---------------------------|
B|---------------------------|
G|---------------------------|
D|---------------------------|
A|--4~---7~---9~---4~---2~---|
E|--2~---5~---7~---2~---0~---|

[Guitar 1] 
         (vv 1st pre chorus vv)              (vv 2nd pre chorus vv)
e|-----------------------------|          |------------------------|
B|-----14-17-17-17-17-14----14-|          |-----14-17-----14-------|
G|--16-------------------16----|          |--16--------16----16----|
D|-----------------------------|          |------------------------|
A|-----------------------------|          |------------------------|
E|-----------------------------|          |------------------------|

[Guitar 2]
e|---0--0--0--0---|
B|---0--0--0--0---|
G|---0--0--0--0---|
D|---0--0--0--0---|
A|---0--0--0--0---|
E|---0--0--0--0---|

[Solo]
(Guitar 1)
(Part 1)
e|-----------------------------------|
B|--------14--17--14----14-17--14----|
G|----16-------------16----------16--|
D|-----------------------------------|
A|-----------------------------------|
E|-----------------------------------|

[Part 2]
e|----------------------------------------------|
B|---14----19--17------17--19-17----17-17-------|
G|-----------------18------------18-------18----|
D|----------------------------------------------|
A|----------------------------------------------|
E|----------------------------------------------|

[Part 3]
e|---17-17-14-14----14-----17-17-14-14-------14------|
B|---------------17----17--------------17-17----17---|
G|---------------------------------------------------|
D|---------------------------------------------------|
A|---------------------------------------------------|
E|---------------------------------------------------|

[Part 4]
e|--17/21-21-21-19-19----(19)---21--21-19-19-------19------|--21-21-21-21-21-|
B|---------------------22----22--------------22-22----22---|-----------------|
G|---------------------------------------------------------|-----------------|
D|---------------------------------------------------------|-----------------|
A|---------------------------------------------------------|-----------------|
E|---------------------------------------------------------|-----------------|

[Outro riff]
(cba typing the rhythm, use these notes, ull figure it out)
e|--9--5--7--5--9--5--7--5--9--12--9--7--9--5--12--14--|
B|-----------------------------------------------------|
G|-----------------------------------------------------|
D|-----------------------------------------------------|
A|-----------------------------------------------------|
E|-----------------------------------------------------|

[Outro]
[Guitar 1]
e|-----------------------|
B|-----------------------|
G|---9--9/6---6/2---2/4--|
D|---0--0-0---0-0---0-0--|
A|-----------------------|
E|-----------------------|

************************************

| h    Hammer-on
| /    Slide up
| ~    Vibrato
| (n)  Ghost note

************************************
Suggest correction
comments
print report bad tab
5 comments total. Showing first comments.
0 reply
Kennedy_28 130 Feb 01, 2008 03:58 PM

Ha! that was my tab, never figured out how it ended up in the misc place

anyway, good stuff mate, pretty much spot on. ive never even noticed that guitar over verses before :D

+3 reply
Stormx 408 Jun 06, 2008 03:31 PM

Hi. It's pretty close. The intro ends like this:

e|----------------------------------------------------------------------|
B|----------------------------------------------------------------------|
G|----------------------------------------------7-7-7-7-7-7-7-7-7-7-7-7-|
D|11/14-14---14/9-9---9/11-11---11/6-6---6/7-7--7-7-7-7-7-7-7-7-7-7-7-7-|
A|0--0--0----0--0-0---0-0--0----0--0-0---0-0-0--0-0-0-0-0-0-0-0-0-0-0-0-|
E|----------------------------------------------------------------------|

e|---------------------------------|
B|---------------------------------|
D|-7-7-7-7-7-7-7-7-9-9-9-9-9-9-9-9-|
D|-7-7-7-7-7-7-7-7-7-7-7-7-7-7-7-7-|
A|-0-0-0-0-0-0-0-0-0-0-0-0-0-0-0-0-|
E|---------------------------------|

0 reply
buckykatt323 10 Sep 14, 2008 07:12 PM

i agree stormx that sounds much, much better. but besides that, excellent tab, man. really accurate

guest
You may want to rate the tab now too:
select rating
Wanna post a correction for this tab? Suggest correction