Oops, an error
Loading. Please wait.

Con Todo El Sabor bass

32 views 1 this week
no commentswrite comment
1 2 3 4 5
3 more votes to show rating
add to favorites
×
Save as Personal and add changes to this tab that will be seen only by you. Learn more ›
×
You can save this tab as Personal to edit and correct it or add notes. All changes will be seen only by you. Learn more »
launch autoscroll
font size
0
reset
guitar tuner
edit
Autoscroll
slow
fast
+/-
esc
set tempo
stop
Que Onda Raza Osea Jelowwwww People !!  
Ahi Les Dejo Esta Rola De Los Capi y El Gran Silecio..
Esta Con Madre La Rola  Se Titula...
*** Con Todo El Sabor ***
Y Dice asi...

** iNTRo **
 Wipi 

**00:04**
G|---------------------------------------------------------------------------------------|
D|----7---10-----7----10--------------------------7---10-----7----10---------------------|
E|--8---------8-------------7---10----7---10----8---------8--------------7---10----7---10|
A|------------------------8---------8----------------------------------8---------8-------|

**00:12**
G|-----------------------------------------|
D|------------------11-11-11-11-11-11--9---|   X 2
E|-888----11-11-11-------------------------|
A|-----------------------------------------|

**00:21**  Hasta --->  **00:49**
G|-----------------------------------------------------------------------------------------|
D|-----10----10---10---10---10---10---10---10---10---10---10---10---10---10---10---10---10-|
E|--8-----8-----8----8----8----8----8----8----8----8----8----8----8----8----8----8----8----|
A|-----------------------------------------------------------------------------------------|

Y Luego Dicen  ' Ami No Me Importa La Raza O eL Color Yo Toko Mis Rolas Con Todo El Sabor '
Ahi es...
**00:50**
G|----------------------------------------------------|
D|----------------------------------------------------|
E|--8--Con--todo--el--saBor--8--Con--todo--el--saBor--|
A|----------------------------------------------------|

**00:58**
G|---------------------------------------------------------------------------------------|
D|----7---10-----7----10--------------------------7---10-----7----10---------------------|
E|--8---------8-------------7---10----7---10----8---------8--------------7---10----7---10|
A|------------------------8---------8----------------------------------8---------8-------|

**01:06**
G|-----------------------------------------|
D|------------------11-11-11-11-11-11--9---|   X 2
E|-888----11-11-11-------------------------|
A|-----------------------------------------|

' Con Todo El Sabor Y Corazon Vibrante..'
**01:15**  Hasta --->  **01:38**
G|-----------------------------------------------------------------------------------------|
D|-----10----10---10---10---10---10---10---10---10---10---10---10---10---10---10---10---10-|
E|--8-----8-----8----8----8----8----8----8----8----8----8----8----8----8----8----8----8----|
A|-----------------------------------------------------------------------------------------|

**01:39**  Hasta --->  **01:57**
G|------------------------------------------------------------------------------------------|
D|----7---10-------7---10-------7---10-------7---10-------7---10-------7---10-------7---10--|
E|--8------------8------------8------------8------------8------------8------------8---------|
A|------------------------------------------------------------------------------------------|

**01:57**  Hasta --> **02:04**
G|---------------------------------------------------------------------------------------|
D|----7---10-----7----10--------------------------7---10-----7----10---------------------|
E|--8---------8-------------7---10----7---10----8---------8--------------7---10----7---10|
A|------------------------8---------8----------------------------------8---------8-------|

Luego  Este Pedasio...
**02:05**
G|----------------------|
D|----------------------|
E|--88--8888------------|
A|----------------------|

**02:07**
G|---------------------------------------------------------------------------------------|
D|----7---10-----7----10--------------------------7---10-----7----10---------------------|
E|--8---------8-------------7---10----7---10----8---------8--------------7---10----7---10|
A|------------------------8---------8----------------------------------8---------8-------|

Y Para Terminar...
**02:14**
G|-----------------------------------------|
D|------------------11-11-11-11-11-11--9---|   X 2
E|-888----11-11-11-------------------------|
A|-----------------------------------------|

Y Eso Es Todo ¬¬ !!   Osea Jelow Muajajaja  ('o_o')

Aunke los capi aun no son muy famosos que digamos son los meros fregones junto con..
chicos de barrio ..

Si Quiere Saver Mas De Los Capi..    oh  
ahi podran bajar musica de los grupos antes mensionados jojo

 Saludos Para:  Alfredo 'la palma' Chuy Treviño Y Yahir.. y para mi tamb jaja

 Saludos,Chismes,Comentarios a..

--- >Lameravena911@  Para Mail
--- >barriomix@      Para Msn

            
            
Suggest correction
Creating personal tab
Creating personal tab
You can edit any tab online and save it as your Personal.

You can edit, replace or remove any tab part or add personal notes – all changes will be seen only by you.

Personal tabs can be accessed anytime from any device, even offline.
Learn more »
Give kudos to tab author, rate the tab!
1 2 3 4 5
comments
print report bad tab
guest
Wanna post a correction for this tab? Suggest correction