Oops, an error
Loading. Please wait.

Meneando La Pera bass

48 views 1 this week
no commentswrite comment
1 2 3 4 5
3 more votes to show rating
add to favorites
×
Save as Personal and add changes to this tab that will be seen only by you. Learn more ›
×
You can save this tab as Personal to edit and correct it or add notes. All changes will be seen only by you. Learn more »
launch autoscroll
font size
0
reset
guitar tuner
edit
Autoscroll
slow
fast
+/-
esc
set tempo
stop
Que Onda Raza Bueno Aqui Les Dejo Una Rola De Los Capi..
Es ¡Meneando La Pera! Espero Que Les Guste Esta Shida..

Como Baila La Pera...........  Una Mano En La Espalda da 
Otra Mano En El Piso so 
Una Media Vuelta ta Meneando La Pera..
Una Mano En La Espalda da 
Otra Mano En El Piso so 
Una Media Vuelta ta Meneando La Pera..

 * Cumbia *      [ Ahi Empiesa ]

**00:21**  Hasta -->  **01:23**
G|--------------------------------------------------------------------------------|
D|-------------------------4--7------4--7--------------------------4--7------4--7-|
A|--------5---------5---5---------5---------------5---------5---5---------5-------|
E|--3--6------3--6--------------------------3--6------3--6------------------------|

'La Novia De Alguien Esta En el (Pare o parke algo asi dice ¬¬ no le entiendo ese pedaso)'

**01:31**  Hasta ---> **02:01**
G|--------------------------------------------------------------------------------|
D|-------------------------4--7------4--7--------------------------4--7------4--7-|
A|--------5---------5---5---------5---------------5---------5---5---------5-------|
E|--3--6------3--6--------------------------3--6------3--6------------------------|

Luego Se Va Calmado
**02:02** Hasta ---> **02:09**
G|------------------------------------------------------------------------|
D|---------------------------------4-----7---------4-----7----------------|
A|----------5-----------5------5--------------5------------------------5--|
E|--3---6-------3---6-----------------------------------------3----6------|

**02:10** Hasta --> **02:16**
G|--------------------------------------------------------------------------------|
D|-------------------------4--7------4--7--------------------------4--7------4--7-|
A|--------5---------5---5---------5---------------5---------5---5---------5-------|
E|--3--6------3--6--------------------------3--6------3--6------------------------|


Como Menea La Pera.. Como Baila La Pera.. Como Me Encanta La Pera  ¡¡ah ah ah!!

**02:32** Hasta ---> **03:18**
G|-------------------------------------------------------------------------------------------|
D|-------------------------4--7------4--7--------------------------4--7------4--7------------|
A|--------5---------5---5---------5---------------5---------5---5---------5---------The End--|
E|--3--6------3--6--------------------------3--6------3--6-----------------------------------|

Como Baila La Pera...........  Una Mano En La Espalda da 
Otra Mano En El Piso so 
Una Media Vuelta ta Meneando La Pera..
Una Mano En La Espalda da 
Otra Mano En El Piso so 
Una Media Vuelta ta 
Meneando La Peraaaa..!!

Y Ya Osea Es Todo JaJaJa  Todo Es Lo Mismo ¬¬ 
..Pero En Fin Que Se Le Va Ah Aser JoJoJo...


Un Saludo Para La Banda De Monclova,Coahuila,Mexico.
 
Dudas,Aclaraciones,Correcciones Etc.. ah...

Lameravena911@ 
barriomix@

                                      [ bY Juan.. BaSs..]

            
            
Suggest correction
Creating personal tab
Creating personal tab
You can edit any tab online and save it as your Personal.

You can edit, replace or remove any tab part or add personal notes – all changes will be seen only by you.

Personal tabs can be accessed anytime from any device, even offline.
Learn more »
Give kudos to tab author, rate the tab!
1 2 3 4 5
comments
print report bad tab
guest
Wanna post a correction for this tab? Suggest correction