Oops, an error
Loading. Please wait.

Tiene Sentido La Vida tab

56 views 6 this week
no commentswrite comment
1 2 3 4 5
3 more votes to show rating
add to favorites
×
Save as Personal and add changes to this tab that will be seen only by you. Learn more ›
×
You can save this tab as Personal to edit and correct it or add notes. All changes will be seen only by you. Learn more »
launch autoscroll
font size
0
reset
how to read this tab
guitar tuner
edit
Autoscroll
slow
fast
+/-
esc
set tempo
stop
1|-12--12-10--10-8-8-7-5-
2|----------------------- (x2)
3|---12-----10---9-9-7-5-

Intro:

1era Guitarra (punteo):

1|--8-8-8-8-s-10-10---10-10-s-7-7-7-7-s-8-8-8-
2|-------------------------------------------- (x2)
3|-9---9--9-s-10-10-10---10-s-7-7--7-s-9--9--

2da Guitarra (ritmo):

REm - MI7 - LAm - LA7 - REm - MI7 - LAm

LAm                      DO
Tiene sentido la vida la pucha si lo tendra
    SOLm            LA7                  REm
preguntate para adentro seguro lo encontraras
                DO          MI7        LAm
tiene sentido la vida el silencio te dirá

2|--1-1-1--1-s-3-3-3-3-0-0-0-1-1-1-
3|-------------------------------- (x2)
4|-2---2-2-2-s-3--3--3-0--0-2---2--

LAm - REm - MI7 - LAm (x2)

En lo profundo en lo alto en la flor en el adios
en la sonrisa del niño en el beso y el dolor
tiene sentido la vida cuando esta llena de amor

1|--8-8-8-8-s-10-10---10-10-s-7-7-7-7-s-8-8-8-
2|-------------------------------------------- (x2)
3|-9---9--9-s-10-10-10---10-s-7-7--7-s-9--9--

LAm - REm - MI7 - LAm (x2)

Hablemosnos frente a frente sin esquivar las miradas
sin engaños ni mentiras confiemos en la palabra
tiene sentido la vida si no se anda en cosas raras

LA7                REm            SI7        MI7
No cuesta nada empezar no cuesta nada intentarlo
       SOLm           LA7                      REm
los valores ya estan dados empezemos a encausarlos
               DO          MI7          LAm
tiene valores la vida empezemos a juntarlos


1|--8-8-8-8-s-10-10---10-10-s-7-7-7-7-s-8-8-8-
2|-------------------------------------------- (x2)
3|-9---9--9-s-10-10-10---10-s-7-7--7-s-9--9--

REm - MI7 - LAm - LA7 - REm - MI7 - LAm

Mi padre solia decirme que pa´ tos no es la suerte
que el que a hierro mata un dia
a hierro tambien se muere
tiene sentido la vida si llega tarde la muerte

2|--1-1-1--1-s-3-3-3-3-0-0-0-1-1-1-
3|-------------------------------- (x2)
4|-2---2-2-2-s-3--3--3-0--0-2---2--

LAm - REm - MI7 - LAm (x2)

Caminos de ausencias largas callejones sin salida
diariamente asi transita de un lado al otro la mentira
tiene sentido la vida si encontramos la salida

1|--8-8-8-8-s-10-10---10-10-s-7-7-7-7-s-8-8-8-
2|-------------------------------------------- (x2)
3|-9---9--9-s-10-10-10---10-s-7-7--7-s-9--9--

LAm - REm - MI7 - LAm (x2)

Si educamos nuestros hijos y limpiamos nuestra casa
si ayudamos al vecino veras que existe una causa
tiene sentido la vida probarlo no cuesta nada

LA7                REm            SI7        MI7
No cuesta nada empezar no cuesta nada intentarlo
       SOLm           LA7                      REm
los valores ya estan dados empezemos a encausarlos
               DO          MI7          LAm
tiene valores la vida empezemos a juntarlos

            
            
Suggest correction
Creating personal tab
Creating personal tab
You can edit any tab online and save it as your Personal.

You can edit, replace or remove any tab part or add personal notes – all changes will be seen only by you.

Personal tabs can be accessed anytime from any device, even offline.
Learn more »
Give kudos to tab author, rate the tab!
1 2 3 4 5
comments
print report bad tab
guest
Wanna post a correction for this tab? Suggest correction