Oops, an error
Loading. Please wait.

Zamba De Mi Esperanza tab

version 1
version 1

Whole song

202 views 1 this week
no commentswrite comment
1 2 3 4 5
3 more votes to show rating
add to favorites
×
Save as Personal and add changes to this tab that will be seen only by you. Learn more ›
×
You can save this tab as Personal to edit and correct it or add notes. All changes will be seen only by you. Learn more »
launch autoscroll
font size
0
reset
how to read this tab
guitar tuner
edit
Autoscroll
slow
fast
+/-
esc
set tempo
stop
ACORDES : RE MI7 LA7 SOL

PUNTEO :

PRIMERA ESTROFA

1|------------------2---------------2-2-5---2--------|
2|--3---------2-3-5---3-------2-3-5-------3---5-3-2--|
3|----2---2-4-------------2-4------------------------|
4|---------------------------------------------------|
5|---------------------------------------------------|
6|---------------------------------------------------|

1|--3-------3-2-------2-----------2-3-5--|
2|--------5-----3---3---5-5-3-5-3--------|
3|----4-4---------2----------------------|
4|---------------------------------------|
5|---------------------------------------|
6|---------------------------------------|

1|-7---7--7--7-7--------------------------|
2|---------------10-7---7-10-8-------7----|
3|--------------------7--------9-7-6---7--|
4|----------------------------------------|
5|----------------------------------------|
6|----------------------------------------|

SEGUNDA ESTROFA (igual a la primera)

ESTRIBILLO

1|----------------------------7-----------------5--|
2|--7-7-7-7-10-10-10-8-7-8-10---4-5-7-8-8-8-7-5----|
3|-------------------------------------------------|
4|-------------------------------------------------|
5|-------------------------------------------------|
6|-------------------------------------------------|

1|-------------------------------------------------------------|
2|-------------------7----------7-----------7-8-10-----7-8-10--|
3|--7-7--------6-7-9---7------7---9-9-7-9-7--------7-9---------|
4|------7--7-9--------------7----------------------------------|
5|-------------------------------------------------------------|
6|-------------------------------------------------------------|

1|-7---7--7--7-7--------------------------|
2|---------------10-7---7-10-8-------7----|
3|--------------------7--------9-7-6---7--|
4|----------------------------------------|
5|----------------------------------------|
6|----------------------------------------|


PRIMERA

RE
Zamba de mi esperanza,
               MI7 LA7
amanecida como un querer,
SOL                RE
sueños, sueños del alma         |
            LA7             RE  | BIS
que a veces mueren sin florecer |


RE
Zamba a ti te canto,
                    MI7  LA7
porque tu canto derrama amor,
  SOL           RE
caricia de tu pañuelo,        |
            LA7           RE  | BIS
que va envolviendo mi corazón |


ESTRIBILLO

  RE              LA7
Estrella tú que miraste,
                         RE
tú que escuchaste mi padecer,
  SOL             RE
estrella deja que cante,   |
         LA7            RE | BIS
deja que quiera como yo se |


SEGUNDA

   RE
El tiempo que va pasando,
                 MI7    LA7
como la vida, no vuelve más,
   SOL            RE
el tiempo me va matando, |
       LA7          RE   | BIS
y tu cariño será, será   |


   RE
Hundido en el horizonte,
                     MI7    LA7
soy polvarera que al viento va,
SOL            RE
zamba ya no me dejes,       |
          LA7           RE  | BIS
yo sin tu canto no vivo más |


ESTRIBILLO

  RE              LA7
Estrella tú que miraste,
                         RE
tú que escuchaste mi padecer,
  SOL             RE
estrella deja que cante,   |
         LA7            RE | BIS
deja que quiera como yo se |

            
            
Suggest correction
Creating personal tab
Creating personal tab
You can edit any tab online and save it as your Personal.

You can edit, replace or remove any tab part or add personal notes – all changes will be seen only by you.

Personal tabs can be accessed anytime from any device, even offline.
Learn more »
Give kudos to tab author, rate the tab!
1 2 3 4 5
comments
print report bad tab
guest
Wanna post a correction for this tab? Suggest correction