Oops, an error
Loading. Please wait.

Zamba De Mi Esperanza tab

version 2
version 2

Whole song

145 views 1 this week
no commentswrite comment
1 2 3 4 5
3 more votes to show rating
add to favorites
×
Save as Personal and add changes to this tab that will be seen only by you. Learn more ›
×
You can save this tab as Personal to edit and correct it or add notes. All changes will be seen only by you. Learn more »
launch autoscroll
font size
0
reset
how to read this tab
guitar tuner
edit
Autoscroll
slow
fast
+/-
esc
set tempo
stop
Hola mi nombre s javier ?javi?
y stoy apoyando a la cuerda para sacar st tema
q s muy fácil con dedicación así q les deseo
mucha suerte, se tok con el capo en la 2º spero
q les guste cualquier duda mi correo es javier_chelsea@
por cierto sta dedikdo pa mi novia lui, LUI TE QUIERO MUCHO!!!
SUERTE!!!!!!!!!!!!
1------------------------------------------
2-----0-----0-------------------0----------
3--------1------0/1--1--1----------1/6-----
4------------------------------------------
5---------------0/2--2--2-----2----2/7-----
6---0--------------------------------------

1------------------------------------------
2------------------------------------------
34-----3/4---4-----2---1/2---2-------------
4------------------------------------------
55-----4/5---5-----2---1/2---2-------2-2-2-
6---------------------------------0--------

1----0-7---5--4/5---5---4--2/4---4----7-4-0
2---0--------------------------------------
3--2---------------------------------------
4-1----------------------------------------
5------------------------------------------
6------------------------------------------

1--------------------------------------------
2-7-4-0---------0/1--1--1----2--2-2/4--2--0--
3--------6-4-0-------------2----2-2/4--2--1--
4---------------0/2--2--2--------------------
5--------------------------------------------
6--------------------------------------------


1---7-7---11----9---7---5-4/5---5---4---2---0
2---9-9---12---10---9---7-6/7---7---5---4---0
3--------------------------------------------
4--------------------------------------------
5-------------------------------------------2
6--------------------------------------------

1------0------1-----2--------0---------------
2-----0-0-----0----0-0-------0---------------
3----1---1--------2---2------1---------------
4----------------------------2---------------
5-------------2--------------2---------------
6----------------------------0---------------

E
Zamba de mi esperanza,
                     B7
amanecida como un querer,
 A               E
sueño, sueño del alma,
             B7             E  E7    (BIS)
que a veces muere sin florecer.


 E
Zamba a ti te canto,
                         B7
porque tu canto derrama amor,
   A             E
caricia de tu pañuelo,
             B7            E  E7   (BIS)
que va envolviendo mi corazón.


    E             B7
Estrella tú que miraste,
                          E
tú que escuchaste mi padecer,

estrella deja que cante,
          B7             E  E7   (BIS)
deja que quiera como yo se.

            
            
Suggest correction
Creating personal tab
Creating personal tab
You can edit any tab online and save it as your Personal.

You can edit, replace or remove any tab part or add personal notes – all changes will be seen only by you.

Personal tabs can be accessed anytime from any device, even offline.
Learn more »
Give kudos to tab author, rate the tab!
1 2 3 4 5
comments
print report bad tab
guest
Wanna post a correction for this tab? Suggest correction