Oops, an error
Loading. Please wait.

Esa Mujer tab

76 views 1 this week
no commentswrite comment
1 2 3 4 5
3 more votes to show rating
add to favorites
×
Save as Personal and add changes to this tab that will be seen only by you. Learn more ›
×
You can save this tab as Personal to edit and correct it or add notes. All changes will be seen only by you. Learn more »
launch autoscroll
font size
0
reset
how to read this tab
guitar tuner
edit
Autoscroll
slow
fast
+/-
esc
set tempo
stop
(Intro de acordeón)
Seguido de
Intro en guitarra:
|-11-11-7/9-9-9-9-12-12-12-12-12-12-12-11----------|
|-----------------------------------------12-12-12-|
|--------------------------------------------------|
|--------------------------------------------------|
|--------------------------------------------------|
|--------------------------------------------------|

|-11-11-11-11h12-11-11-11-9-------------|
|---------------------------12-11-11-11-|
|---------------------------------------|
|---------------------------------------|
|---------------------------------------|
|---------------------------------------|

|-9-9-9-11-11h12-12-11-9-11-9-------------------|
|-----------------------------12-12-12-12-12-12-|
|-----------------------------------------------|
|-----------------------------------------------|
|-----------------------------------------------|
|-----------------------------------------------|

|-11-11-9-11-9------------------|
|---------------12-9-9/12-12-12-|
|-------------------------------|
|-------------------------------|
|-------------------------------|
|-------------------------------|

|-11/12-12-12-12-12-14-14-12-11------|
|------------------------------12-12-|
|------------------------------------|
|------------------------------------|
|------------------------------------|
|------------------------------------|

|-11-11-11-11-11h12-11-11-11-9-------------|
|------------------------------12-11-11-11-|
|------------------------------------------|
|------------------------------------------|
|------------------------------------------|
|------------------------------------------|

|-9-9-9-11-11/12-12-11-9-11-9-------------------|
|-----------------------------12-12-12-12-12-12-|
|-----------------------------------------------|
|-----------------------------------------------|
|-----------------------------------------------|
|-----------------------------------------------|

          RE                       LA
Un nuevo amor en mi camino se me cruzó,
                       MI
El mal momento ya terminó,
                         LA
Hoy solo sé que ya te olvidé.

                  RE
Sé que nunca olvidarás
                        LA
Con la ternura que te traté,
                          MI
Mi vida entera yo te entregué,
                          LA
Hoy solo sé que ya te olvidé.


Coro:

       RE                            LA
Un pasatiempo y nada más yo fui en tu vida
        MI                       LA
Y fuiste tú esa mujer que más quería.
        RE                       LA
Pero el dinero se alejó hoy de mi lado,
        MI                            LA
Pudiste nunca regresar, pues ya te olvidé.


(Intro de acordeón)
Seguido de
Intro en guitarra

Un nuevo amor en mi camino se me cruzó,
El mal momento ya terminó,
Hoy solo sé que ya te olvidé.

Sé que nunca olvidarás
Con la ternura que te traté,
Mi vida entera yo te entregué,
Hoy solo sé que ya te olvidé.

Coro:
Un pasatiempo y nada más yo fui en tu vida
Y fuiste tú esa mujer que más quería.
Pero el dinero se alejó hoy de mi lado,
Pudiste nunca regresar, pues ya te olvidé.

(Intro de acordeón)
Seguido de
Intro en guitarra

*Se recomienda que se usen los acordes de la siguiente manera:

 RE   LA   MI
|-5-||-5-||-7-|
|-7-||-5-||-9-|
|-7-||-6-||-9-|
|-7-||-7-||-9-|
|-5-||-7-||-7-|
|-5-||-5-||-7-|

            
            
Suggest correction
Creating personal tab
Creating personal tab
You can edit any tab online and save it as your Personal.

You can edit, replace or remove any tab part or add personal notes – all changes will be seen only by you.

Personal tabs can be accessed anytime from any device, even offline.
Learn more »
Give kudos to tab author, rate the tab!
1 2 3 4 5
comments
print report bad tab
guest
Wanna post a correction for this tab? Suggest correction