Oops, an error
Loading. Please wait.

Malagradecida tab

73 views 1 this week
no commentswrite comment
1 2 3 4 5
3 more votes to show rating
add to favorites
×
Save as Personal and add changes to this tab that will be seen only by you. Learn more ›
×
You can save this tab as Personal to edit and correct it or add notes. All changes will be seen only by you. Learn more »
launch autoscroll
font size
0
reset
how to read this tab
guitar tuner
edit
Autoscroll
slow
fast
+/-
esc
set tempo
stop

|---------------------------|  |-------------|
|---------------------------|  |-------------|
|---------4-5-5---4-5-4-7-4-|  |-------------|
|---7-7-7-------7-----------|  |-5-5-3-5-5-5-|  x2
|-7-------------------------|  |-------------|
|---------------------------|  |-------------|

|---------------------------|  |-------------|
|-----------------3---------|  |-------------|
|---------2-4-4-4---5-4-5-2-|  |-------------|
|---5-5-5-------------------|  |-7-7-5-7-7-7-|  x2
|-5-------------------------|  |-------------|
|---------------------------|  |-------------|

x2


|-----------------------------|-------------------------------|
|---------------------5-------|-------------------------------|
|-4-5-5---4-5-5---4-5---7-5-4-|-----4-4-----4-4-----4-7-5-4---| x2
|-------7-------7-------------|-5-7-----5-7-----5-7---------7-|
|-----------------------------|-------------------------------|
|-----------------------------|-------------------------------|


LAm                                SOL
Recuerdo aquella tarde cuando me dejaste,
                                    LAm
Estando enfermo y pobre tu me abandonaste.
                                    SOL
Recuerdo aquella tarde cuando me dejaste,
                                     LAm
Estando enfermo y pobre tu me abandonaste.

                                 SOL
Yo te di mi cariño, yo te di mi vida,
                                  LAm
Y tu me has despreciado malagradecida.
                                 SOL
Yo te di mi cariño, yo te di mi vida,
                                  LAm
Y tu me has despreciado malagradecida.


Coro:

                                          SOL
Sabiendo que me querías, que eras solo para mí,
                                          LAm
Y por otro me dejaste mientras yo te vi partir.
                                          SOL
Sabiendo que me querías, que eras solo para mí,
                                          LAm
Y por otro me dejaste mientras yo te vi partir.


(mismo punteo de la intro)
LAm

                                 SOL
Yo te di mi cariño, yo te di mi vida,
                                  LAm
Y tu me has despreciado malagradecida.
                                      SOL
La suerte me ha cambiado y no tengo dinero,
                                 LAm
Amores a montones, ya no estoy enfermo.

                                   SOL
Estás arrepentida hoy me lo han contado,
                                   LAm
Que nunca se te ocurra volver a mi lado.


Coro:

                                          SOL
Sabiendo que me querías, que eras solo para mí,
                                          LAm
Y por otro me dejaste mientras yo te vi partir.
                                          SOL
Sabiendo que me querías, que eras solo para mí,
                                          LAm
Y por otro me dejaste mientras yo te vi partir.


(mismo punteo de la intro)


(Coro) x2
Suggest correction
Creating personal tab
Creating personal tab
You can edit any tab online and save it as your Personal.

You can edit, replace or remove any tab part or add personal notes – all changes will be seen only by you.

Personal tabs can be accessed anytime from any device, even offline.
Learn more »
Give kudos to tab author, rate the tab!
1 2 3 4 5
comments
print report bad tab
guest
Wanna post a correction for this tab? Suggest correction