Oops, an error
Loading. Please wait.

Flores En Febrero tab

version 1
version 1

Whole song

461 views 3 this week
no commentswrite comment
1 2 3 4 5
3 more votes to show rating
add to favorites
×
Save as Personal and add changes to this tab that will be seen only by you. Learn more ›
×
You can save this tab as Personal to edit and correct it or add notes. All changes will be seen only by you. Learn more »
launch autoscroll
font size
0
reset
how to read this tab
guitar tuner
edit
Autoscroll
slow
fast
+/-
esc
set tempo
stop
(INTRO)
LA

     6----------------------
     5----------------------
     4----------------------
     3-6-4-2-2h6------------
     2----------------------
     1----------------------

SIm

     6----------------------
     5----------------------
     4----------------------
     3-6-4-2-2h6------------
     2----------------------
     1----------------------

RE
     6----------------------
     5----------0-2---------
     4---2-4----------------

LA
     5----------------------
     4----------------------
     3-6-4-2----------------
     2----------------------
     1----------------------


LA
Como lluvia de la capital
     6----------------------
     5----------------------
     4----------------------
     3-6-4-2-2h6------------
     2----------------------
     1----------------------


SIm
Como recreo antes de un final
     6----------------------
     5----------------------
     4----------------------
     3-6-4-2-2h6------------
     2----------------------
     1----------------------

RE
Como abrazo de año nuevo, como flores en febrero
   6----------------------
   5----------0-2---------
   4---2-4----------------


6--------------
5-------3------
4------4-------
3-6-4-2-------2
2--------------
1--------------

6--------------
5--------------
4------4--2----
3-6-4-2-------4
2--------------
1--------------


A
Perdón no pude controlarme
Bm
aprendí a fallar en el peor instante
D
y ahí estabas,
A
ahí estabas


A                               Bm
Y no, no siempre soy lo que aparento
                    D
por fuera soy más grande,
                  A
contigo caigo por dentro


D        E
Pronto pasó, es que llegaste


 A
Como lluvia de la capital,
 Bm
como recreo antes de un final,
 D
como abrazo de año nuevo,
 A
como flores en febrero,
 A               Bm
como relámpago, como un avión,
D
tú llegaste
                  A
y yo encontré el amor.


A Bm D A

A                          Bm
Perdón, no batallas en sonreír,
                   D
no supe que mas decir sin saber tu nombre
A
un beso te di.


A                                   Bm
Estoy, el día que siempre había esperado,
                            D
los libros me lo habían contado,
                  A
te he buscado tanto.


D        E
Pronto pasó, es que llegaste.

A
Como lluvia de la capital,
Bm
como recreo antes de un final,
D
como abrazo de año nuevo,
A
como flores en febrero,
A                Bm
como relámpago, como un avión,
D
tú llegaste
                   A
y yo encontré el amor.

A Bm D A D E

A
Como lluvia de la capital,
Bm
como recreo antes de un final,
D
como abrazo en año nuevo,
A
como flores en febrero,
A                Bm
como relámpago, como un avión,
D
tú llegaste
                   A
y encontré el amor.

            A
Taraptaptapta
           Bm
Taraptaptapta

         D
tú llegaste
                   A
y yo encontré, y encontré.


        Bm    D
tú llegaste
Suggest correction
Creating personal tab
Creating personal tab
You can edit any tab online and save it as your Personal.

You can edit, replace or remove any tab part or add personal notes – all changes will be seen only by you.

Personal tabs can be accessed anytime from any device, even offline.
Learn more »
Give kudos to tab author, rate the tab!
1 2 3 4 5
comments
print report bad tab
guest
Wanna post a correction for this tab? Suggest correction