Oops, an error
Loading. Please wait.

Oso Polar tab

43 views 1 this week
no commentswrite comment
1 2 3 4 5
3 more votes to show rating
add to favorites
×
Save as Personal and add changes to this tab that will be seen only by you. Learn more ›
×
You can save this tab as Personal to edit and correct it or add notes. All changes will be seen only by you. Learn more »
launch autoscroll
font size
0
reset
how to read this tab
guitar tuner
edit
Autoscroll
slow
fast
+/-
esc
set tempo
stop
Riff Principal
E---------------------------
B---------------------------
G---------------------------
D---------------------------
A------------------6---8----
E-8---8---8--6--8----------8

(se toca en todo el primer verso excepto al final que se toca asi)
Aun queda
piensa antes de hablar
                                          A---------------
                                          E-8---8---8--6--
por que tus palabras pueden ser un arma mortal

(solo bateria y bajo)
ten mas precausion
cuando ablen de amor
(aqui entra la guitarra con el riff principal)
no le hagas promesas para el dia siguiente desirle que no
(riff principal)

(en esta parte se toca el riff 2 que va asi)
E------------------------------------------
B------------------------------------------
G------------------------------8-10-8------
D--10---10---10--10---10----10--------10-8-
A------------------------------------------
E------------------------------------------
tenle compasion
pidele perdon
nadie se merece pasar, pasar por lo que  yo
                       E-----------
                       B-----------
                       G-----------
                       D-8---------
                       A-8-X16-----
                       E-6---------

(coro)
E--------------------------------------
B--------------------------------------
G--------------------------------------
D-10--------8--------10--------8-------
A-10-X16----8-X16----10-X16----8-X16---
E-8---------6--------8---------6-------
y olvide apagar la television
y amanecio
la estatica me hizo entenderte mejor

Riff principal

Riff 2
aun queda
piensa antes de hablar
el que aguanta el frio debe de ser un oso polar
y baja mas la voz
si ves que estoy cerca yo
no quiero enterarme
no quiero volver a involucrarme

Coro
y olvide apagar la television
y amanecio
la estatica me hizo entenderte mejor
olvide apagar la television y amanesio
no quiero enterarme
no quiero involucrarme amor

Riff 2
hasta el final


eso es todo espero que les sirva

            
            
Suggest correction
Creating personal tab
Creating personal tab
You can edit any tab online and save it as your Personal.

You can edit, replace or remove any tab part or add personal notes – all changes will be seen only by you.

Personal tabs can be accessed anytime from any device, even offline.
Learn more »
Give kudos to tab author, rate the tab!
1 2 3 4 5
comments
print report bad tab
guest
Wanna post a correction for this tab? Suggest correction