Oops, an error
Loading. Please wait.

Querube tab

version 1
version 1

Whole song

100 views 1 this week
no commentswrite comment
1 2 3 4 5
3 more votes to show rating
add to favorites
×
Save as Personal and add changes to this tab that will be seen only by you. Learn more ›
×
You can save this tab as Personal to edit and correct it or add notes. All changes will be seen only by you. Learn more »
launch autoscroll
font size
0
reset
how to read this tab
guitar tuner
edit
Autoscroll
slow
fast
+/-
esc
set tempo
stop
Este es el requinto de la canción Querube como se los había prometido.
De esta canción también hay una Al estilo único de mis tíos Los Panchos.


Este requinto es de  mucho interés para mi, es muy rápido y espero que esta 
forma de de presentarlo sea clara y concisa cualquier duda mi mail Robert@


------------------------------0--2---0------------------0---2---3--3---2--1--0---2----3----5----5------3-------2-----3-
---------0----2---3---5-------------------3----2-----------------------------------------------------------------------
----2-----------------------------------------------------------------------------------------------------------------
---------------------------------------------------------------------------------------------------------------------
---------------------------------------------------------------------------------------------------------------------
---------------------------------------------------------------------------------------------------------------------


Rif--***************-7-7------------5...4-----4---44------5--5--5--5--2--2--2--3--3--3-2--3--2--0---------------
----------------------------------------------------------------------------------------------------------------3


Esto viene de arriba
Esta parte va repicada como quien le da corriente a la cuerda

----------------3----2-----0-----------------------------------------------------------------------------------------
----------------------------------3----2---0-------------------------------------------------------------------------
------------------------------------------------2----0---------------------------------------------------------------
-----------------------------------------------------------4-------2-------------------------------------------------
---------------------------------------------------------------------------------------------------------------------
---------------------------------------------------------------------------------------------------------------------

Cualquier sugerencia mi dirección  Robert@ /      sir_robert@

            
            
Suggest correction
Creating personal tab
Creating personal tab
You can edit any tab online and save it as your Personal.

You can edit, replace or remove any tab part or add personal notes – all changes will be seen only by you.

Personal tabs can be accessed anytime from any device, even offline.
Learn more »
Give kudos to tab author, rate the tab!
1 2 3 4 5
comments
print report bad tab
guest
Wanna post a correction for this tab? Suggest correction