Oops, an error
Loading. Please wait.

Borracho Hasta El Amanecer tab

341 views 1 this week
no commentswrite comment
1 2 3 4 5
3 more votes to show rating
add to favorites
×
Save as Personal and add changes to this tab that will be seen only by you. Learn more ›
×
You can save this tab as Personal to edit and correct it or add notes. All changes will be seen only by you. Learn more »
launch autoscroll
font size
0
reset
how to read this tab
guitar tuner
edit
Autoscroll
slow
fast
+/-
esc
set tempo
stop
INTRO:

E|----------------------------------------------------------|
B|----------------------------------------------9-7-5-------|
G|--------------------------------9-6---9-6---6-------6-----|
D|-9--9-9-9-9-9-9-7-6---------9-6-----6-----6---------------|
A|--------------------9-7---7-------------------------------|
E|------------------------9---------------------------------|

E|-------------------------------------------|
B|-------------------------------9-7-5-------|
G|-----------------9-6---9-6---6-------6-----|
D|-------9-6-----6-----6---------------------|
A|-7---7-------------------------------------|
E|---9---------------------------------------|

SOLO

E|-------------------------------------------------|
B|--17----------17----------17---------------------|
G|-----16-14-13----16-18-16----16-14-13----14-13---|
D|--------------------------------------16---------|
A|-------------------------------------------------|
E|-------------------------------------------------|

E|-------------------------------------------------|
B|--17----------17----------17---------------------|
G|-----16-14-13----16-18-16----16----18-16---------|
D|--------------------------------18---------------|
A|-------------------------------------------------|
E|-------------------------------------------------|


ACORDES

    E   C#m   A    B7  G#m
E|--7----4----5----2----4-----|
B|--9----5----5----4----4-----|
G|--9----6----6----2----4-----|
D|--9----6----7----4----6-----|
A|--7----4----7----2----6-----|
E|------------5---------4-----|


     E                           C#m
Adivina muñeca quien viene esta noche
                         A                     B7
a apropiarse con derroche de la barra de este bar.
     E                            C#m
Todavía no perdí el sentido común,
                     A                          B7
no necesito de Freud, ni mi familia huyó al Aaiun
     E                             C#m
Solo quiero concentrarme en este lugar
                     A                              B7
mucho tiempo mucho tiempo  más o menos hasta el amanecer.

G#m                                 C#m
Borracho, Borracho hasta el amanecer
A                      B7
Ahh! Borracho, borracho hasta el amanecer

        G#m                             C#m
Muy! Borracho, Borracho hasta el amanecer
            A                             B7
Totalmente! Borracho, Borracho hasta el amanecer


Se repite la misma estructura de acordes en el resto de la canción:


De la misma forma que se nace para morir
y que la eternidad se alcanza en un segundo de heroísmo.
Soy testigo de una curación milagrosa
el alcohol limpia mis heridas y me impide verte
Solo quiero concentrarme en este lugar
mucho tiempo mucho tiempo más o menos hasta el amanecer.

Borracho, Borracho hasta el amanecer
Ahh! Borracho, Borracho hasta el amanecer
Muy! Borracho, Borracho hasta el amanecer
Completamente! Borracho, Borracho hasta el amanecer

Sigo con el método Stanislavsky de interpretación
únicamente preciso una botella de ron de caña
un enyesque de queso de Guía
y, por supuesto, tu ausencia

No cimbrees tu cintura ni me muestres tus encantos
¿no sabes que en noches como esta soy vegetariano?
Sólo quiero concentrarme en este lugar /
mucho tiempo, mucho tiempo /más o menos hasta el amanecer

Borracho, Borracho hasta el amanecer
Ahh! Borracho, Borracho hasta el amanecer
Muy! Borracho, Borracho hasta el amanecer
Absolutamente! Borracho, Borracho hasta el amanecer

            
            
Suggest correction
Creating personal tab
Creating personal tab
You can edit any tab online and save it as your Personal.

You can edit, replace or remove any tab part or add personal notes – all changes will be seen only by you.

Personal tabs can be accessed anytime from any device, even offline.
Learn more »
Give kudos to tab author, rate the tab!
1 2 3 4 5
comments
print report bad tab
guest
Wanna post a correction for this tab? Suggest correction