Oops, an error
Loading. Please wait.

El Tiempo Que Has Llorado tab

193 views 3 this week
no commentswrite comment
1 2 3 4 5
2 more votes to show rating
add to favorites
×
Save as Personal and add changes to this tab that will be seen only by you. Learn more ›
×
You can save this tab as Personal to edit and correct it or add notes. All changes will be seen only by you. Learn more »
launch autoscroll
font size
0
reset
how to read this tab
guitar tuner
edit
Autoscroll
slow
fast
+/-
esc
set tempo
stop
Hola mis amigos de la cuerda,

este solamente es el requinto de esta bella rola del recuerdo,
ya que la transcripcion de Lucio Soto es excelente, solo le falta
el requinto.
y aqui lo tienen

este requinto se toca al principio, en medio y al final de la cancion

(/= slide)
e|----------------------------------------------------------------------
B|---------------------2------2----------------------------0-----0------
G|--------------------2------2----------------------------1-----1-------
D|------2-4/6/4--2---4----4-3----3-2--------2-4/6/4--2-4-2----2-1---1-2-
A|--2-4-----------4--------------------2-4------------------------------
E|----------------------------------------------------------------------

se repite lo mismo para finalizar el requinto

(/= slide)
e|----------------------------------------------------------------------
B|---------------------2------2----------------------------0-----0------
G|--------------------2------2----------------------------1-----1-------
D|------2-4/6/4--2---4----4-3----3-2--------2-4/6/4--2-4-2----2-1---1-2-
A|--2-4-----------4--------------------2-4------------------------------
E|----------------------------------------------------------------------

por favor no olviden calificar esta rola y haganme saber si encuentran
algun error.

saludos y echenle ganas

            
            
Suggest correction
Creating personal tab
Creating personal tab
You can edit any tab online and save it as your Personal.

You can edit, replace or remove any tab part or add personal notes – all changes will be seen only by you.

Personal tabs can be accessed anytime from any device, even offline.
Learn more »
Give kudos to tab author, rate the tab!
1 2 3 4 5
comments
print report bad tab
guest
Wanna post a correction for this tab? Suggest correction