Oops, an error
Loading. Please wait.

El Centenario tab

441 views 12 this week
no commentswrite comment
1 2 3 4 5
2 more votes to show rating
add to favorites
×
Save as Personal and add changes to this tab that will be seen only by you. Learn more ›
×
You can save this tab as Personal to edit and correct it or add notes. All changes will be seen only by you. Learn more »
launch autoscroll
font size
0
reset
how to read this tab
guitar tuner
edit
Autoscroll
slow
fast
+/-
esc
set tempo
stop
Intro;


e |--------------5--5--4?5--4--0--0-----|
B |--------2--2--7--7--5?7--5--2--2-----|
G |--2--2-------------------------------|
D |-------------------------------------|
A |-------------------------------------|
E |-------------------------------------|


e |---------4--4---5--5--4--7--7-5--4---|
B |--2--2---5--5---7--7--5--9--9-7--5---|
G |-------------------------------------|
D |-------------------------------------|
A |-------------------------------------|
E |-------------------------------------|


e |--4--4--5--5--7--7--5--7--7--5--5-4--|
B |--5--5--7--7--9--9--7--9--9--7--7-5--|
G |-------------------------------------|
D |-------------------------------------|
A |-------------------------------------|
E |-------------------------------------|


e |--7--5--5-4--5--5--4--2--0-----------|
B |--9--7--7-5--7?-7--5?-3--2-----------|
G |-------------------------------------|
D |-------------------------------------|
A |-------------------------------------|
E |-------------------------------------|

e |--5--4--5--5----5--4--4--2--0--------|
B |--7--5--7--7----7--5--5--3--2--3?3---|
G |-------------------------------4-4---|
D |-------------------------------------|
A |-------------------------------------|
E |-------------------------------------|

e |--------------4--4---2--2--0---------|
B |--------0--0--5--5---3--3--2--3--2---|
G |--1--1------------------------4--2---|
D |-------------------------------------|
A |-------------------------------------|
E |-------------------------------------|


ESTO ES UN ARREGLO PARA CAER A ?LA?


G |-------------------|
D |--4--2--0----------|
A |-----------4--2--0-|
E |-------------------|


SALUDOS A TODA ESA RAZA DE PARRAL
CHIHUAHUA DEPARTE DE SU COMPA MARTIN ADRIAN
MORENO BARRAZA,PURA SOLIDARIDAD.
SI QUIEREN ALGUNA ROLA ESCRIBAN A MI CORREO ES:
ptmldz005 @

            
            
Suggest correction
Creating personal tab
Creating personal tab
You can edit any tab online and save it as your Personal.

You can edit, replace or remove any tab part or add personal notes – all changes will be seen only by you.

Personal tabs can be accessed anytime from any device, even offline.
Learn more »
Give kudos to tab author, rate the tab!
1 2 3 4 5
comments
print report bad tab
guest
Wanna post a correction for this tab? Suggest correction