Oops, an error
Loading. Please wait.

El Cuervo tab

45 views 1 this week
no commentswrite comment
1 2 3 4 5
3 more votes to show rating
add to favorites
×
Save as Personal and add changes to this tab that will be seen only by you. Learn more ›
×
You can save this tab as Personal to edit and correct it or add notes. All changes will be seen only by you. Learn more »
launch autoscroll
font size
0
reset
how to read this tab
guitar tuner
edit
Autoscroll
slow
fast
+/-
esc
set tempo
stop
Dedicada con todo gusto al único wey q la pidió

Para tocar la canción necesitas poner un capo en el traste 1
de modo que donde dice 0 tocas la cuerda al aire pero sonará
como si pisaras el traste 1.

los acordes son:

        F#                 C#7               B
e |-----2-------------------0----------------2------------------|
B |-----2-------------------2----------------4------------------|
G |-----3-------------------4----------------4------------------|
D |-----4-------------------3----------------4------------------|
A |-----4bajo menor---------4Bajo mayor------2Bajo mayor--------|
E |-----2Bajo mayor---------4bajo menor------2bajo menor--------|


intro:

e |------------6--6--6-6----------------------------------------|
B |-2-2--4--6--7--7--7-7---6--4--2--2-2---2------2------2-------|
G |------------6--6--6-6----------------4---4--3---3--0---0--4--|
D |-------------------------------------------------------------|
A |-------------------------------------------------------------|
E |-------------------------------------------------------------|


e |-6--6--6-6----------------------------------------|
B |-7--7--7-7---6--4--2--2-2---2------2------2-------|
G |-6--6--6-6----------------4---4--3---3--0---0--4--|
D |--------------------------------------------------|
A |--------------------------------------------------|
E |--------------------------------------------------|


e |------------------------------------------------|
B |-----0-3-4-4/6-6-6---6-6-4-3-0------------------|
G |-4-4---------------------------4----------------|
D |------------------------------------------------|
A |------------------------------------------------|
E |------------------------------------------------|


e |-------------------------------------2-0--------------|
B |-----0-3-4-4/6-6-6---6-6-4-3-0-----------4-2----------|
G |-4-4---------------------------4-4-4---------4-3-0----|
D |---------------------------------------------------4--|
A |------------------------------------------------------|
E |------------------------------------------------------|

                      F#
e |-------------------2--------------------|
B |-------------------2--------------------|
G |-------------------3--------------------|
D |-4-3-0-------------4--------------------|
A |-------4-2-0-------4--------------------|
E |-------------4-2---2--------------------|


F#
El cuervo en una ladera

                C#7
lloraba su soledad aya ya ya yay

D |-------------|
A |----0-3-4----| C#7
E |--4----------|

                      B
porque la cuerva no quizo


          C#7      F#
darle de amor caridad

D |----------------------------|
A |----------------------------|
E |----------------------------|
D |---0-3-4--4-3-0-------------|
A |-4--------------4-2-0-------|
E |----------------------4-2---| F#


la cuerva le dice al cuervo
                     C#7
ya no quiero tu amistad aya ya ya yay
                      B
porque tu eres muy prieto
            C#7       F#
y hasta vergüenza me da


el cuervo le contestó
                   C#7
somos del mismo color aya ya ya yay
                        B
si no me quieres por prieto
           C#7       F#
pues buscate un español


----OTRA VEZ EL REQUINTO DE ARRIBA-----

F#                                          C#7
al hombre que tenga una no le consedo el honor aya ya ya yay
                      B                 C#7    F#
hay que pasearse con todas no hay otra cosa mejor


e |-2-2-4-5-6-6-6-6-5-4-2--------------|
B |-----------------------4-2----------|
G |---------------------------4-3-0----|
D |---------------------------------4--|
A |------------------------------------|
E |------------------------------------|


e |--------------------------------------------------------|
B |--------------------------------------------------------|
G |--------------------------------------------------------|
D |-4-3-0-----------------------4-4-4-4-4-4-3-0------------|
A |-------4-2-0-2-4-2-4-2-4-2-4-----------------4-2-0------|
E |---------------------------------------------------4-2--| F#


no confies en las mujeres
                     C#7
ni les tengas compasion aya ya ya yay
                    B              C#7       F#
cuando menos lo imaginas te juegan una traicion

                                        C#7
el cuervo viene volando cansado de navegar aya ya ya yay
                       B           C#7       F#
buscando un arbol frondoso para poder descansar


e |-6--6--6-6----------------------------------------|
B |-7--7--7-7---6--4--2--2-2---2------2------2-------|
G |-6--6--6-6----------------4---4--3---3--0---0--4--|
D |--------------------------------------------------|
A |--------------------------------------------------|
E |--------------------------------------------------|


e |-6--6--6-6----------------------------------------|
B |-7--7--7-7---6--4--2--2-2---2------2------2-------|
G |-6--6--6-6----------------4---4--3---3--0---0--4--|
D |--------------------------------------------------|
A |--------------------------------------------------|
E |--------------------------------------------------|

    C#7   F#
G |-4-4---3----------------------------|
D |-3-3---4----------------------------|
A |-4-4---4----------------------------|
E |------------------------------------|

ahí me avisas.....

            
            
Suggest correction
Creating personal tab
Creating personal tab
You can edit any tab online and save it as your Personal.

You can edit, replace or remove any tab part or add personal notes – all changes will be seen only by you.

Personal tabs can be accessed anytime from any device, even offline.
Learn more »
Give kudos to tab author, rate the tab!
1 2 3 4 5
comments
print report bad tab
guest
Wanna post a correction for this tab? Suggest correction